ISO-10303-21;
HEADER;
/* Generated by software containing ST-Developer
 * from STEP Tools, Inc. (www.steptools.com) 
 */

FILE_DESCRIPTION(
/* description */ ('This is a sample STEP configuration'),
/* implementation_level */ '2;1');

FILE_NAME(
/* name */ '110-01111xxxxxxxx SIMPLE.ipt_Rev_00.1.stp',
/* time_stamp */ '2023-04-26T12:45:57+02:00',
/* author */ ('powerJobs'),
/* organization */ ('coolOrange'),
/* preprocessor_version */ 'ST-DEVELOPER v19.2',
/* originating_system */ 'Autodesk Inventor 2023',
/* authorisation */ '');

FILE_SCHEMA (('AUTOMOTIVE_DESIGN { 1 0 10303 214 3 1 1 }'));
ENDSEC;

DATA;
#10=MECHANICAL_DESIGN_GEOMETRIC_PRESENTATION_REPRESENTATION('',(#13),#514);
#11=SHAPE_REPRESENTATION_RELATIONSHIP('SRR','None',#521,#12);
#12=ADVANCED_BREP_SHAPE_REPRESENTATION('',(#14),#513);
#13=STYLED_ITEM('',(#530),#14);
#14=MANIFOLD_SOLID_BREP('Volumenk\X\F6rper1',#266);
#15=FACE_BOUND('',#57,.T.);
#16=CYLINDRICAL_SURFACE('',#304,5.00000000000001);
#17=CYLINDRICAL_SURFACE('',#308,38.6273855912471);
#18=TOROIDAL_SURFACE('',#302,32.0762298977831,0.2);
#19=TOROIDAL_SURFACE('',#312,65.,59.9999999999999);
#20=TOROIDAL_SURFACE('',#321,41.0216886611038,18.5);
#21=TOROIDAL_SURFACE('',#331,41.0216886611038,22.);
#22=PLANE('',#298);
#23=PLANE('',#307);
#24=PLANE('',#326);
#25=FACE_OUTER_BOUND('',#42,.T.);
#26=FACE_OUTER_BOUND('',#43,.T.);
#27=FACE_OUTER_BOUND('',#44,.T.);
#28=FACE_OUTER_BOUND('',#45,.T.);
#29=FACE_OUTER_BOUND('',#46,.T.);
#30=FACE_OUTER_BOUND('',#47,.T.);
#31=FACE_OUTER_BOUND('',#48,.T.);
#32=FACE_OUTER_BOUND('',#49,.T.);
#33=FACE_OUTER_BOUND('',#50,.T.);
#34=FACE_OUTER_BOUND('',#51,.T.);
#35=FACE_OUTER_BOUND('',#52,.T.);
#36=FACE_OUTER_BOUND('',#53,.T.);
#37=FACE_OUTER_BOUND('',#54,.T.);
#38=FACE_OUTER_BOUND('',#55,.T.);
#39=FACE_OUTER_BOUND('',#56,.T.);
#40=FACE_OUTER_BOUND('',#58,.T.);
#41=FACE_OUTER_BOUND('',#59,.T.);
#42=EDGE_LOOP('',(#167,#168,#169,#170,#171));
#43=EDGE_LOOP('',(#172,#173,#174,#175,#176,#177));
#44=EDGE_LOOP('',(#178));
#45=EDGE_LOOP('',(#179,#180,#181,#182));
#46=EDGE_LOOP('',(#183,#184,#185,#186,#187));
#47=EDGE_LOOP('',(#188,#189,#190,#191));
#48=EDGE_LOOP('',(#192));
#49=EDGE_LOOP('',(#193,#194,#195,#196));
#50=EDGE_LOOP('',(#197,#198,#199,#200));
#51=EDGE_LOOP('',(#201,#202,#203,#204));
#52=EDGE_LOOP('',(#205,#206,#207,#208,#209,#210));
#53=EDGE_LOOP('',(#211,#212,#213,#214,#215));
#54=EDGE_LOOP('',(#216,#217,#218,#219,#220,#221));
#55=EDGE_LOOP('',(#222,#223,#224,#225,#226,#227));
#56=EDGE_LOOP('',(#228));
#57=EDGE_LOOP('',(#229));
#58=EDGE_LOOP('',(#230,#231,#232,#233,#234));
#59=EDGE_LOOP('',(#235,#236,#237,#238,#239,#240));
#60=LINE('',#440,#70);
#61=LINE('',#447,#71);
#62=LINE('',#457,#72);
#63=LINE('',#465,#73);
#64=LINE('',#470,#74);
#65=LINE('',#474,#75);
#66=LINE('',#483,#76);
#67=LINE('',#488,#77);
#68=LINE('',#496,#78);
#69=LINE('',#508,#79);
#70=VECTOR('',#341,35.3691725622818);
#71=VECTOR('',#348,35.3691725622818);
#72=VECTOR('',#361,27.5);
#73=VECTOR('',#372,5.00000000000001);
#74=VECTOR('',#379,38.6273855912471);
#75=VECTOR('',#384,31.8646021484397);
#76=VECTOR('',#397,43.8252702199249);
#77=VECTOR('',#402,51.3662572110268);
#78=VECTOR('',#413,43.8252702199248);
#79=VECTOR('',#428,51.3662572110268);
#80=CIRCLE('',#290,38.4405888847285);
#81=CIRCLE('',#291,38.4405888847285);
#82=CIRCLE('',#292,38.6273855912471);
#83=CIRCLE('',#294,32.1261332515683);
#84=CIRCLE('',#295,34.2072208979723);
#85=CIRCLE('',#296,34.2072208979723);
#86=CIRCLE('',#297,32.1261332515683);
#87=CIRCLE('',#299,22.5);
#88=CIRCLE('',#301,32.1109595333164);
#89=CIRCLE('',#303,0.2);
#90=CIRCLE('',#305,5.00000000000001);
#91=CIRCLE('',#306,5.00000000000001);
#92=CIRCLE('',#309,38.6273855912471);
#93=CIRCLE('',#311,25.1018187056322);
#94=CIRCLE('',#313,59.9999999999999);
#95=CIRCLE('',#315,53.3232231114129);
#96=CIRCLE('',#316,53.3232231114129);
#97=CIRCLE('',#318,36.453382250504);
#98=CIRCLE('',#319,59.2785194146297);
#99=CIRCLE('',#320,59.2785194146297);
#100=CIRCLE('',#322,18.5);
#101=CIRCLE('',#324,55.6505404398497);
#102=CIRCLE('',#325,55.6505404398497);
#103=CIRCLE('',#327,40.);
#104=CIRCLE('',#329,62.7325144220535);
#105=CIRCLE('',#330,62.7325144220535);
#106=CIRCLE('',#332,22.);
#107=VERTEX_POINT('',#435);
#108=VERTEX_POINT('',#436);
#109=VERTEX_POINT('',#439);
#110=VERTEX_POINT('',#443);
#111=VERTEX_POINT('',#444);
#112=VERTEX_POINT('',#446);
#113=VERTEX_POINT('',#448);
#114=VERTEX_POINT('',#453);
#115=VERTEX_POINT('',#456);
#116=VERTEX_POINT('',#462);
#117=VERTEX_POINT('',#464);
#118=VERTEX_POINT('',#469);
#119=VERTEX_POINT('',#473);
#120=VERTEX_POINT('',#479);
#121=VERTEX_POINT('',#480);
#122=VERTEX_POINT('',#485);
#123=VERTEX_POINT('',#487);
#124=VERTEX_POINT('',#489);
#125=VERTEX_POINT('',#495);
#126=VERTEX_POINT('',#497);
#127=VERTEX_POINT('',#501);
#128=VERTEX_POINT('',#504);
#129=VERTEX_POINT('',#505);
#130=EDGE_CURVE('',#107,#108,#80,.T.);
#131=EDGE_CURVE('',#108,#107,#81,.T.);
#132=EDGE_CURVE('',#108,#109,#60,.T.);
#133=EDGE_CURVE('',#109,#109,#82,.T.);
#134=EDGE_CURVE('',#110,#111,#83,.T.);
#135=EDGE_CURVE('',#110,#112,#61,.T.);
#136=EDGE_CURVE('',#113,#112,#84,.T.);
#137=EDGE_CURVE('',#112,#113,#85,.T.);
#138=EDGE_CURVE('',#111,#110,#86,.T.);
#139=EDGE_CURVE('',#114,#114,#87,.T.);
#140=EDGE_CURVE('',#114,#115,#62,.T.);
#141=EDGE_CURVE('',#115,#115,#88,.T.);
#142=EDGE_CURVE('',#111,#115,#89,.T.);
#143=EDGE_CURVE('',#116,#116,#90,.T.);
#144=EDGE_CURVE('',#116,#117,#63,.T.);
#145=EDGE_CURVE('',#117,#117,#91,.T.);
#146=EDGE_CURVE('',#109,#118,#64,.T.);
#147=EDGE_CURVE('',#118,#118,#92,.T.);
#148=EDGE_CURVE('',#118,#119,#65,.T.);
#149=EDGE_CURVE('',#119,#119,#93,.T.);
#150=EDGE_CURVE('',#116,#119,#94,.T.);
#151=EDGE_CURVE('',#120,#121,#95,.T.);
#152=EDGE_CURVE('',#121,#120,#96,.T.);
#153=EDGE_CURVE('',#121,#113,#66,.T.);
#154=EDGE_CURVE('',#122,#122,#97,.T.);
#155=EDGE_CURVE('',#122,#123,#67,.T.);
#156=EDGE_CURVE('',#123,#124,#98,.T.);
#157=EDGE_CURVE('',#124,#123,#99,.T.);
#158=EDGE_CURVE('',#124,#120,#100,.T.);
#159=EDGE_CURVE('',#107,#125,#68,.T.);
#160=EDGE_CURVE('',#125,#126,#101,.T.);
#161=EDGE_CURVE('',#126,#125,#102,.T.);
#162=EDGE_CURVE('',#127,#127,#103,.T.);
#163=EDGE_CURVE('',#128,#129,#104,.T.);
#164=EDGE_CURVE('',#129,#128,#105,.T.);
#165=EDGE_CURVE('',#129,#127,#69,.T.);
#166=EDGE_CURVE('',#126,#128,#106,.T.);
#167=ORIENTED_EDGE('',*,*,#130,.F.);
#168=ORIENTED_EDGE('',*,*,#131,.F.);
#169=ORIENTED_EDGE('',*,*,#132,.T.);
#170=ORIENTED_EDGE('',*,*,#133,.T.);
#171=ORIENTED_EDGE('',*,*,#132,.F.);
#172=ORIENTED_EDGE('',*,*,#134,.F.);
#173=ORIENTED_EDGE('',*,*,#135,.T.);
#174=ORIENTED_EDGE('',*,*,#136,.F.);
#175=ORIENTED_EDGE('',*,*,#137,.F.);
#176=ORIENTED_EDGE('',*,*,#135,.F.);
#177=ORIENTED_EDGE('',*,*,#138,.F.);
#178=ORIENTED_EDGE('',*,*,#139,.F.);
#179=ORIENTED_EDGE('',*,*,#139,.T.);
#180=ORIENTED_EDGE('',*,*,#140,.T.);
#181=ORIENTED_EDGE('',*,*,#141,.F.);
#182=ORIENTED_EDGE('',*,*,#140,.F.);
#183=ORIENTED_EDGE('',*,*,#134,.T.);
#184=ORIENTED_EDGE('',*,*,#142,.T.);
#185=ORIENTED_EDGE('',*,*,#141,.T.);
#186=ORIENTED_EDGE('',*,*,#142,.F.);
#187=ORIENTED_EDGE('',*,*,#138,.T.);
#188=ORIENTED_EDGE('',*,*,#143,.T.);
#189=ORIENTED_EDGE('',*,*,#144,.T.);
#190=ORIENTED_EDGE('',*,*,#145,.T.);
#191=ORIENTED_EDGE('',*,*,#144,.F.);
#192=ORIENTED_EDGE('',*,*,#145,.F.);
#193=ORIENTED_EDGE('',*,*,#133,.F.);
#194=ORIENTED_EDGE('',*,*,#146,.T.);
#195=ORIENTED_EDGE('',*,*,#147,.T.);
#196=ORIENTED_EDGE('',*,*,#146,.F.);
#197=ORIENTED_EDGE('',*,*,#147,.F.);
#198=ORIENTED_EDGE('',*,*,#148,.T.);
#199=ORIENTED_EDGE('',*,*,#149,.T.);
#200=ORIENTED_EDGE('',*,*,#148,.F.);
#201=ORIENTED_EDGE('',*,*,#143,.F.);
#202=ORIENTED_EDGE('',*,*,#150,.T.);
#203=ORIENTED_EDGE('',*,*,#149,.F.);
#204=ORIENTED_EDGE('',*,*,#150,.F.);
#205=ORIENTED_EDGE('',*,*,#151,.F.);
#206=ORIENTED_EDGE('',*,*,#152,.F.);
#207=ORIENTED_EDGE('',*,*,#153,.T.);
#208=ORIENTED_EDGE('',*,*,#136,.T.);
#209=ORIENTED_EDGE('',*,*,#137,.T.);
#210=ORIENTED_EDGE('',*,*,#153,.F.);
#211=ORIENTED_EDGE('',*,*,#154,.F.);
#212=ORIENTED_EDGE('',*,*,#155,.T.);
#213=ORIENTED_EDGE('',*,*,#156,.T.);
#214=ORIENTED_EDGE('',*,*,#157,.T.);
#215=ORIENTED_EDGE('',*,*,#155,.F.);
#216=ORIENTED_EDGE('',*,*,#157,.F.);
#217=ORIENTED_EDGE('',*,*,#158,.T.);
#218=ORIENTED_EDGE('',*,*,#151,.T.);
#219=ORIENTED_EDGE('',*,*,#152,.T.);
#220=ORIENTED_EDGE('',*,*,#158,.F.);
#221=ORIENTED_EDGE('',*,*,#156,.F.);
#222=ORIENTED_EDGE('',*,*,#130,.T.);
#223=ORIENTED_EDGE('',*,*,#131,.T.);
#224=ORIENTED_EDGE('',*,*,#159,.T.);
#225=ORIENTED_EDGE('',*,*,#160,.T.);
#226=ORIENTED_EDGE('',*,*,#161,.T.);
#227=ORIENTED_EDGE('',*,*,#159,.F.);
#228=ORIENTED_EDGE('',*,*,#162,.F.);
#229=ORIENTED_EDGE('',*,*,#154,.T.);
#230=ORIENTED_EDGE('',*,*,#163,.F.);
#231=ORIENTED_EDGE('',*,*,#164,.F.);
#232=ORIENTED_EDGE('',*,*,#165,.T.);
#233=ORIENTED_EDGE('',*,*,#162,.T.);
#234=ORIENTED_EDGE('',*,*,#165,.F.);
#235=ORIENTED_EDGE('',*,*,#161,.F.);
#236=ORIENTED_EDGE('',*,*,#166,.T.);
#237=ORIENTED_EDGE('',*,*,#163,.T.);
#238=ORIENTED_EDGE('',*,*,#164,.T.);
#239=ORIENTED_EDGE('',*,*,#166,.F.);
#240=ORIENTED_EDGE('',*,*,#160,.F.);
#241=CONICAL_SURFACE('',#289,35.3691725622818,1.35743926001146);
#242=CONICAL_SURFACE('',#293,35.3691725622818,1.35743926001146);
#243=CONICAL_SURFACE('',#300,27.5,1.39626340159546);
#244=CONICAL_SURFACE('',#310,31.8646021484397,0.843343094563661);
#245=CONICAL_SURFACE('',#314,41.497952891488,0.843372389915156);
#246=CONICAL_SURFACE('',#317,47.9122622036029,0.162315620435472);
#247=CONICAL_SURFACE('',#323,43.8252702199248,0.843372389915156);
#248=CONICAL_SURFACE('',#328,51.3662572110268,0.162315620435472);
#249=ADVANCED_FACE('',(#25),#241,.T.);
#250=ADVANCED_FACE('',(#26),#242,.T.);
#251=ADVANCED_FACE('',(#27),#22,.T.);
#252=ADVANCED_FACE('',(#28),#243,.T.);
#253=ADVANCED_FACE('',(#29),#18,.T.);
#254=ADVANCED_FACE('',(#30),#16,.T.);
#255=ADVANCED_FACE('',(#31),#23,.T.);
#256=ADVANCED_FACE('',(#32),#17,.T.);
#257=ADVANCED_FACE('',(#33),#244,.T.);
#258=ADVANCED_FACE('',(#34),#19,.F.);
#259=ADVANCED_FACE('',(#35),#245,.F.);
#260=ADVANCED_FACE('',(#36),#246,.F.);
#261=ADVANCED_FACE('',(#37),#20,.F.);
#262=ADVANCED_FACE('',(#38),#247,.T.);
#263=ADVANCED_FACE('',(#39,#15),#24,.T.);
#264=ADVANCED_FACE('',(#40),#248,.T.);
#265=ADVANCED_FACE('',(#41),#21,.T.);
#266=CLOSED_SHELL('',(#249,#250,#251,#252,#253,#254,#255,#256,#257,#258,
#259,#260,#261,#262,#263,#264,#265));
#267=DERIVED_UNIT_ELEMENT(#270,1.);
#268=DERIVED_UNIT_ELEMENT(#516,-3.);
#269=DIMENSIONAL_EXPONENTS(0.,1.,0.,0.,0.,0.,0.);
#270=(
CONVERSION_BASED_UNIT('gram',#272)
MASS_UNIT()
NAMED_UNIT(#269)
);
#271=(
MASS_UNIT()
NAMED_UNIT(*)
SI_UNIT(.KILO.,.GRAM.)
);
#272=MASS_MEASURE_WITH_UNIT(MASS_MEASURE(0.001),#271);
#273=DERIVED_UNIT((#267,#268));
#274=MEASURE_REPRESENTATION_ITEM('density measure',
POSITIVE_RATIO_MEASURE(0.),#273);
#275=PROPERTY_DEFINITION_REPRESENTATION(#280,#277);
#276=PROPERTY_DEFINITION_REPRESENTATION(#281,#278);
#277=REPRESENTATION('material name',(#279),#513);
#278=REPRESENTATION('density',(#274),#513);
#279=DESCRIPTIVE_REPRESENTATION_ITEM('ACC.TECHN. INFO',
'ACC.TECHN. INFO');
#280=PROPERTY_DEFINITION('material property','material name',#523);
#281=PROPERTY_DEFINITION('material property','density of part',#523);
#282=DATE_TIME_ROLE('creation_date');
#283=APPLIED_DATE_AND_TIME_ASSIGNMENT(#284,#282,(#523));
#284=DATE_AND_TIME(#285,#286);
#285=CALENDAR_DATE(2022,6,5);
#286=LOCAL_TIME(0,0,0.,#287);
#287=COORDINATED_UNIVERSAL_TIME_OFFSET(0,0,.BEHIND.);
#288=AXIS2_PLACEMENT_3D('placement',#433,#333,#334);
#289=AXIS2_PLACEMENT_3D('',#434,#335,#336);
#290=AXIS2_PLACEMENT_3D('',#437,#337,#338);
#291=AXIS2_PLACEMENT_3D('',#438,#339,#340);
#292=AXIS2_PLACEMENT_3D('',#441,#342,#343);
#293=AXIS2_PLACEMENT_3D('',#442,#344,#345);
#294=AXIS2_PLACEMENT_3D('',#445,#346,#347);
#295=AXIS2_PLACEMENT_3D('',#449,#349,#350);
#296=AXIS2_PLACEMENT_3D('',#450,#351,#352);
#297=AXIS2_PLACEMENT_3D('',#451,#353,#354);
#298=AXIS2_PLACEMENT_3D('',#452,#355,#356);
#299=AXIS2_PLACEMENT_3D('',#454,#357,#358);
#300=AXIS2_PLACEMENT_3D('',#455,#359,#360);
#301=AXIS2_PLACEMENT_3D('',#458,#362,#363);
#302=AXIS2_PLACEMENT_3D('',#459,#364,#365);
#303=AXIS2_PLACEMENT_3D('',#460,#366,#367);
#304=AXIS2_PLACEMENT_3D('',#461,#368,#369);
#305=AXIS2_PLACEMENT_3D('',#463,#370,#371);
#306=AXIS2_PLACEMENT_3D('',#466,#373,#374);
#307=AXIS2_PLACEMENT_3D('',#467,#375,#376);
#308=AXIS2_PLACEMENT_3D('',#468,#377,#378);
#309=AXIS2_PLACEMENT_3D('',#471,#380,#381);
#310=AXIS2_PLACEMENT_3D('',#472,#382,#383);
#311=AXIS2_PLACEMENT_3D('',#475,#385,#386);
#312=AXIS2_PLACEMENT_3D('',#476,#387,#388);
#313=AXIS2_PLACEMENT_3D('',#477,#389,#390);
#314=AXIS2_PLACEMENT_3D('',#478,#391,#392);
#315=AXIS2_PLACEMENT_3D('',#481,#393,#394);
#316=AXIS2_PLACEMENT_3D('',#482,#395,#396);
#317=AXIS2_PLACEMENT_3D('',#484,#398,#399);
#318=AXIS2_PLACEMENT_3D('',#486,#400,#401);
#319=AXIS2_PLACEMENT_3D('',#490,#403,#404);
#320=AXIS2_PLACEMENT_3D('',#491,#405,#406);
#321=AXIS2_PLACEMENT_3D('',#492,#407,#408);
#322=AXIS2_PLACEMENT_3D('',#493,#409,#410);
#323=AXIS2_PLACEMENT_3D('',#494,#411,#412);
#324=AXIS2_PLACEMENT_3D('',#498,#414,#415);
#325=AXIS2_PLACEMENT_3D('',#499,#416,#417);
#326=AXIS2_PLACEMENT_3D('',#500,#418,#419);
#327=AXIS2_PLACEMENT_3D('',#502,#420,#421);
#328=AXIS2_PLACEMENT_3D('',#503,#422,#423);
#329=AXIS2_PLACEMENT_3D('',#506,#424,#425);
#330=AXIS2_PLACEMENT_3D('',#507,#426,#427);
#331=AXIS2_PLACEMENT_3D('',#509,#429,#430);
#332=AXIS2_PLACEMENT_3D('',#510,#431,#432);
#333=DIRECTION('axis',(0.,0.,1.));
#334=DIRECTION('refdir',(1.,0.,0.));
#335=DIRECTION('center_axis',(0.,0.,1.));
#336=DIRECTION('ref_axis',(-1.,0.,0.));
#337=DIRECTION('center_axis',(0.,5.94125796798988E-16,-1.));
#338=DIRECTION('ref_axis',(0.,-1.,-5.80239470273342E-16));
#339=DIRECTION('center_axis',(0.,5.94125796798988E-16,-1.));
#340=DIRECTION('ref_axis',(0.,-1.,-5.80239470273342E-16));
#341=DIRECTION('',(0.977325591084317,-1.1968786568462E-16,0.211742034116258));
#342=DIRECTION('center_axis',(2.22044604925031E-16,5.94125796798988E-16,
-1.));
#343=DIRECTION('ref_axis',(1.,2.73815258661214E-16,2.22044604925032E-16));
#344=DIRECTION('center_axis',(0.,0.,1.));
#345=DIRECTION('ref_axis',(-1.,0.,0.));
#346=DIRECTION('center_axis',(0.,0.,-1.));
#347=DIRECTION('ref_axis',(-1.,0.,0.));
#348=DIRECTION('',(0.977325591084317,-1.1968786568462E-16,0.211742034116258));
#349=DIRECTION('center_axis',(0.,-5.94125796798988E-16,1.));
#350=DIRECTION('ref_axis',(0.,-1.,-5.80239470273342E-16));
#351=DIRECTION('center_axis',(0.,-5.94125796798988E-16,1.));
#352=DIRECTION('ref_axis',(0.,-1.,-5.80239470273342E-16));
#353=DIRECTION('center_axis',(0.,0.,-1.));
#354=DIRECTION('ref_axis',(-1.,0.,0.));
#355=DIRECTION('center_axis',(1.45947178162852E-16,5.94125796798988E-16,
-1.));
#356=DIRECTION('ref_axis',(-0.942954607552629,0.332921324182255,6.01755828931905E-17));
#357=DIRECTION('center_axis',(-1.45947178162852E-16,-5.94125796798988E-16,
1.));
#358=DIRECTION('ref_axis',(0.94295460755263,-0.332921324182255,-6.01755828931905E-17));
#359=DIRECTION('center_axis',(-1.45947178162853E-16,-5.94125796798988E-16,
1.));
#360=DIRECTION('ref_axis',(0.94295460755263,-0.332921324182255,-2.3992836554746E-17));
#361=DIRECTION('',(-0.928629008256413,0.327863501197776,0.17364817766693));
#362=DIRECTION('center_axis',(-1.45947178162853E-16,-5.94125796798988E-16,
1.));
#363=DIRECTION('ref_axis',(0.942954607552629,-0.332921324182255,-6.05292182960962E-17));
#364=DIRECTION('center_axis',(-1.45947178162853E-16,-5.94125796798988E-16,
1.));
#365=DIRECTION('ref_axis',(0.94295460755263,-0.332921324182255,0.));
#366=DIRECTION('center_axis',(-0.332921324182256,-0.942954607552629,-6.08822585372123E-16));
#367=DIRECTION('ref_axis',(-0.94295460755263,0.332921324182255,0.));
#368=DIRECTION('center_axis',(2.44929359829471E-16,5.94125796798988E-16,
-1.));
#369=DIRECTION('ref_axis',(-1.,1.43915975625961E-31,-2.44929359829471E-16));
#370=DIRECTION('center_axis',(-2.44929359829471E-16,-5.94125796798988E-16,
1.));
#371=DIRECTION('ref_axis',(-1.,1.43915975625961E-31,-2.44929359829471E-16));
#372=DIRECTION('',(-2.44929359829471E-16,-5.94125796798988E-16,1.));
#373=DIRECTION('center_axis',(2.44929359829471E-16,5.94125796798988E-16,
-1.));
#374=DIRECTION('ref_axis',(1.,-1.43915975625961E-31,2.44929359829471E-16));
#375=DIRECTION('center_axis',(-2.44929359829471E-16,-5.94125796798988E-16,
1.));
#376=DIRECTION('ref_axis',(1.,-1.43915975625961E-31,2.44929359829471E-16));
#377=DIRECTION('center_axis',(2.22044604925031E-16,5.94125796798988E-16,
-1.));
#378=DIRECTION('ref_axis',(-1.,-2.73815258661214E-16,-2.22044604925032E-16));
#379=DIRECTION('',(-2.22044604925031E-16,-5.94125796798988E-16,1.));
#380=DIRECTION('center_axis',(2.22044604925031E-16,5.94125796798988E-16,
-1.));
#381=DIRECTION('ref_axis',(1.,2.73815258661214E-16,2.22044604925032E-16));
#382=DIRECTION('center_axis',(2.22044604925031E-16,5.94125796798988E-16,
-1.));
#383=DIRECTION('ref_axis',(-1.,-2.73815258661214E-16,-2.22044604925032E-16));
#384=DIRECTION('',(-0.746870345992336,-5.08114904986968E-16,0.664969688239463));
#385=DIRECTION('center_axis',(2.22044604925031E-16,5.94125796798988E-16,
-1.));
#386=DIRECTION('ref_axis',(1.,2.73815258661214E-16,2.22044604925032E-16));
#387=DIRECTION('center_axis',(2.22044604925031E-16,5.94125796798988E-16,
-1.));
#388=DIRECTION('ref_axis',(-1.,-2.73815258661214E-16,-2.27373675443232E-16));
#389=DIRECTION('center_axis',(1.51350578746479E-16,-1.,-5.94125796798988E-16));
#390=DIRECTION('ref_axis',(1.,1.51350578746479E-16,2.8421709430404E-16));
#391=DIRECTION('center_axis',(0.,5.94125796798988E-16,-1.));
#392=DIRECTION('ref_axis',(0.,-1.,-5.80239470273342E-16));
#393=DIRECTION('center_axis',(0.,-5.94125796798988E-16,1.));
#394=DIRECTION('ref_axis',(1.,0.,0.));
#395=DIRECTION('center_axis',(0.,-5.94125796798988E-16,1.));
#396=DIRECTION('ref_axis',(1.,0.,0.));
#397=DIRECTION('',(9.14676234962484E-17,-0.746889826192595,0.664947808124814));
#398=DIRECTION('center_axis',(0.,-5.94125796798988E-16,1.));
#399=DIRECTION('ref_axis',(0.,-1.,-5.80239470273342E-16));
#400=DIRECTION('center_axis',(0.,-5.94125796798988E-16,1.));
#401=DIRECTION('ref_axis',(0.,-1.,-5.80239470273342E-16));
#402=DIRECTION('',(-1.97907602244213E-17,0.16160382110336,0.986855716406807));
#403=DIRECTION('center_axis',(0.,-5.94125796798988E-16,1.));
#404=DIRECTION('ref_axis',(1.,0.,0.));
#405=DIRECTION('center_axis',(0.,-5.94125796798988E-16,1.));
#406=DIRECTION('ref_axis',(1.,0.,0.));
#407=DIRECTION('center_axis',(0.,-5.94125796798988E-16,1.));
#408=DIRECTION('ref_axis',(1.,0.,0.));
#409=DIRECTION('center_axis',(-1.22464679914735E-16,1.,5.94125796798988E-16));
#410=DIRECTION('ref_axis',(-1.,-1.22464679914735E-16,0.));
#411=DIRECTION('center_axis',(0.,5.94125796798988E-16,-1.));
#412=DIRECTION('ref_axis',(0.,-1.,-5.80239470273342E-16));
#413=DIRECTION('',(-9.14676234962484E-17,0.746889826192595,-0.664947808124814));
#414=DIRECTION('center_axis',(0.,-5.94125796798988E-16,1.));
#415=DIRECTION('ref_axis',(1.,0.,0.));
#416=DIRECTION('center_axis',(0.,-5.94125796798988E-16,1.));
#417=DIRECTION('ref_axis',(1.,0.,0.));
#418=DIRECTION('center_axis',(0.,5.94125796798988E-16,-1.));
#419=DIRECTION('ref_axis',(-1.,0.,0.));
#420=DIRECTION('center_axis',(0.,-5.94125796798988E-16,1.));
#421=DIRECTION('ref_axis',(1.,0.,0.));
#422=DIRECTION('center_axis',(0.,-5.94125796798988E-16,1.));
#423=DIRECTION('ref_axis',(0.,-1.,-5.80239470273342E-16));
#424=DIRECTION('center_axis',(0.,-5.94125796798988E-16,1.));
#425=DIRECTION('ref_axis',(1.,0.,0.));
#426=DIRECTION('center_axis',(0.,-5.94125796798988E-16,1.));
#427=DIRECTION('ref_axis',(1.,0.,0.));
#428=DIRECTION('',(1.97907602244213E-17,-0.16160382110336,-0.986855716406807));
#429=DIRECTION('center_axis',(0.,-5.94125796798988E-16,1.));
#430=DIRECTION('ref_axis',(1.,0.,0.));
#431=DIRECTION('center_axis',(1.22464679914735E-16,-1.,-5.94125796798988E-16));
#432=DIRECTION('ref_axis',(-1.,-1.22464679914735E-16,0.));
#433=CARTESIAN_POINT('',(0.,0.,0.));
#434=CARTESIAN_POINT('Origin',(0.,0.,83.5315122527147));
#435=CARTESIAN_POINT('',(4.70761441350221E-15,38.4405888847284,84.1969485675575));
#436=CARTESIAN_POINT('',(38.4405888847284,-4.7076144135022E-15,84.1969485675575));
#437=CARTESIAN_POINT('Origin',(0.,-6.79267302501323E-14,84.1969485675575));
#438=CARTESIAN_POINT('Origin',(0.,-6.79267302501323E-14,84.1969485675575));
#439=CARTESIAN_POINT('',(38.6273855912472,-4.73049041237515E-15,84.237418923563));
#440=CARTESIAN_POINT('',(35.3691725622818,-4.33147439668888E-15,83.5315122527147));
#441=CARTESIAN_POINT('Origin',(-8.21905590288783E-15,-6.65499509537694E-14,
84.237418923563));
#442=CARTESIAN_POINT('Origin',(0.,0.,83.5315122527147));
#443=CARTESIAN_POINT('',(32.1261332515683,-7.13139740987662E-14,82.8288930369346));
#444=CARTESIAN_POINT('',(-30.2934853724161,10.6954748229677,82.8288930369346));
#445=CARTESIAN_POINT('Origin',(-2.45706024201373E-14,-6.73796574732147E-14,
82.8288930369346));
#446=CARTESIAN_POINT('',(34.2072208979723,-4.18917635804283E-15,83.2797701401678));
#447=CARTESIAN_POINT('',(35.3691725622818,-4.33147439668888E-15,83.5315122527147));
#448=CARTESIAN_POINT('',(-4.18917635804282E-15,34.2072208979722,83.2797701401678));
#449=CARTESIAN_POINT('Origin',(0.,-6.73818108861526E-14,83.2797701401678));
#450=CARTESIAN_POINT('Origin',(0.,-6.73818108861526E-14,83.2797701401678));
#451=CARTESIAN_POINT('Origin',(-2.45706024201373E-14,-6.73796574732147E-14,
82.8288930369346));
#452=CARTESIAN_POINT('Origin',(-17.4446602397237,6.15904449737166,81.1309341056454));
#453=CARTESIAN_POINT('',(-21.2164786699342,7.49072979410068,81.1309341056454));
#454=CARTESIAN_POINT('Origin',(-2.42945239177528E-14,-6.6255789493902E-14,
81.1309341056454));
#455=CARTESIAN_POINT('Origin',(-2.44231960440946E-14,-6.67795915334549E-14,
82.0125690091877));
#456=CARTESIAN_POINT('',(-30.2791772448768,10.6904231685945,82.8256055818663));
#457=CARTESIAN_POINT('',(-25.9312517076973,9.15533641501196,82.0125690091877));
#458=CARTESIAN_POINT('Origin',(-2.45418564376203E-14,-6.72626375350243E-14,
82.8256055818663));
#459=CARTESIAN_POINT('Origin',(-2.45706024201373E-14,-6.73796574732147E-14,
83.0225671324688));
#460=CARTESIAN_POINT('Origin',(-30.246428775032,10.6788609323443,83.0225671324688));
#461=CARTESIAN_POINT('Origin',(-2.7862413393254E-14,-1.50414865284663E-13,
228.930934105645));
#462=CARTESIAN_POINT('',(5.,-9.96353072611246E-14,142.430934105645));
#463=CARTESIAN_POINT('Origin',(-6.67602376800481E-15,-9.90229838615509E-14,
142.430934105645));
#464=CARTESIAN_POINT('',(4.99999999999996,-2.03013195904148E-13,316.430934105645));
#465=CARTESIAN_POINT('',(4.99999999999998,-1.51027188684237E-13,228.930934105645));
#466=CARTESIAN_POINT('Origin',(-4.92937323783327E-14,-2.02400872504575E-13,
316.430934105645));
#467=CARTESIAN_POINT('Origin',(-5.00000000000005,-2.02400872504575E-13,
316.430934105645));
#468=CARTESIAN_POINT('Origin',(-8.36770593707148E-15,-6.6947694551428E-14,
84.9068791621211));
#469=CARTESIAN_POINT('',(38.6273855912471,-6.14991609843879E-14,85.5763394006792));
#470=CARTESIAN_POINT('',(38.6273855912471,-6.11014173867294E-14,84.9068791621211));
#471=CARTESIAN_POINT('Origin',(-8.51635597125513E-15,-6.73454381490866E-14,
85.5763394006792));
#472=CARTESIAN_POINT('Origin',(-9.85332805379093E-15,-7.09227806569254E-14,
91.5975263733922));
#473=CARTESIAN_POINT('',(25.1018187056322,-7.07009483760775E-14,97.6187133461052));
#474=CARTESIAN_POINT('',(31.8646021484397,-6.61000546802327E-14,91.5975263733922));
#475=CARTESIAN_POINT('Origin',(-1.11903001363267E-14,-7.45001231647641E-14,
97.6187133461052));
#476=CARTESIAN_POINT('Origin',(-2.11406119906921E-14,-1.01124219529858E-13,
142.430934105645));
#477=CARTESIAN_POINT('Origin',(65.,-9.1286431911337E-14,142.430934105645));
#478=CARTESIAN_POINT('Origin',(0.,-6.35254243428551E-14,76.7889115306363));
#479=CARTESIAN_POINT('',(-53.3232231114129,-6.38007339551658E-14,66.2610033473012));
#480=CARTESIAN_POINT('',(-6.53021145036119E-15,53.3232231114128,66.2610033473013));
#481=CARTESIAN_POINT('Origin',(0.,-5.72705225048046E-14,66.2610033473012));
#482=CARTESIAN_POINT('Origin',(0.,-5.72705225048046E-14,66.2610033473012));
#483=CARTESIAN_POINT('',(-5.08203351797284E-15,41.4979528914879,76.7889115306363));
#484=CARTESIAN_POINT('Origin',(0.,-6.04694011981228E-15,-19.9557249297288));
#485=CARTESIAN_POINT('',(-4.46425178911746E-15,36.453382250504,-89.9309341056453));
#486=CARTESIAN_POINT('Origin',(0.,3.5527136788005E-14,-89.9309341056453));
#487=CARTESIAN_POINT('',(-7.25952490593205E-15,59.2785194146297,49.4538708723261));
#488=CARTESIAN_POINT('',(-5.86755985475511E-15,47.9122622036029,-19.9557249297287));
#489=CARTESIAN_POINT('',(-59.2785194146297,-5.45444964371358E-14,49.453870872326));
#490=CARTESIAN_POINT('Origin',(0.,-4.72849715312038E-14,49.453870872326));
#491=CARTESIAN_POINT('Origin',(0.,-4.72849715312038E-14,49.453870872326));
#492=CARTESIAN_POINT('Origin',(0.,-4.90612120123115E-14,52.4435415627382));
#493=CARTESIAN_POINT('Origin',(-41.0216886611038,-5.40849199837555E-14,
52.4435415627382));
#494=CARTESIAN_POINT('Origin',(0.,-6.50785371387321E-14,79.4030259223103));
#495=CARTESIAN_POINT('',(-6.81522562204823E-15,55.6505404398497,68.8751177389753));
#496=CARTESIAN_POINT('',(-5.36704768965988E-15,43.8252702199248,79.4030259223104));
#497=CARTESIAN_POINT('',(-55.6505404398497,-6.56388609227298E-14,68.8751177389753));
#498=CARTESIAN_POINT('Origin',(0.,-5.88236353006816E-14,68.8751177389753));
#499=CARTESIAN_POINT('Origin',(0.,-5.88236353006816E-14,68.8751177389753));
#500=CARTESIAN_POINT('Origin',(0.,-40.,-89.9309341056454));
#501=CARTESIAN_POINT('',(-4.89858719658941E-15,40.,-89.9309341056453));
#502=CARTESIAN_POINT('Origin',(0.,3.5527136788005E-14,-89.9309341056454));
#503=CARTESIAN_POINT('Origin',(0.,-5.7108946233865E-15,-20.5213383035905));
#504=CARTESIAN_POINT('',(-62.7325144220535,-5.46314433337213E-14,48.8882574984643));
#505=CARTESIAN_POINT('',(-7.6825172989433E-15,62.7325144220535,48.8882574984643));
#506=CARTESIAN_POINT('Origin',(0.,-4.6948926034778E-14,48.8882574984643));
#507=CARTESIAN_POINT('Origin',(0.,-4.6948926034778E-14,48.8882574984643));
#508=CARTESIAN_POINT('',(-6.29055224776636E-15,51.3662572110268,-20.5213383035905));
#509=CARTESIAN_POINT('Origin',(0.,-4.90612120123115E-14,52.4435415627382));
#510=CARTESIAN_POINT('Origin',(-41.0216886611038,-5.40849199837555E-14,
52.4435415627382));
#511=UNCERTAINTY_MEASURE_WITH_UNIT(LENGTH_MEASURE(0.01),#515,
'DISTANCE_ACCURACY_VALUE',
'Maximum model space distance between geometric entities at asserted c
onnectivities');
#512=UNCERTAINTY_MEASURE_WITH_UNIT(LENGTH_MEASURE(0.01),#515,
'DISTANCE_ACCURACY_VALUE',
'Maximum model space distance between geometric entities at asserted c
onnectivities');
#513=(
GEOMETRIC_REPRESENTATION_CONTEXT(3)
GLOBAL_UNCERTAINTY_ASSIGNED_CONTEXT((#511))
GLOBAL_UNIT_ASSIGNED_CONTEXT((#515,#517,#518))
REPRESENTATION_CONTEXT('','3D')
);
#514=(
GEOMETRIC_REPRESENTATION_CONTEXT(3)
GLOBAL_UNCERTAINTY_ASSIGNED_CONTEXT((#512))
GLOBAL_UNIT_ASSIGNED_CONTEXT((#515,#517,#518))
REPRESENTATION_CONTEXT('','3D')
);
#515=(
LENGTH_UNIT()
NAMED_UNIT(*)
SI_UNIT(.MILLI.,.METRE.)
);
#516=(
LENGTH_UNIT()
NAMED_UNIT(*)
SI_UNIT(.CENTI.,.METRE.)
);
#517=(
NAMED_UNIT(*)
PLANE_ANGLE_UNIT()
SI_UNIT($,.RADIAN.)
);
#518=(
NAMED_UNIT(*)
SI_UNIT($,.STERADIAN.)
SOLID_ANGLE_UNIT()
);
#519=SHAPE_DEFINITION_REPRESENTATION(#520,#521);
#520=PRODUCT_DEFINITION_SHAPE('',$,#523);
#521=SHAPE_REPRESENTATION('',(#288),#513);
#522=PRODUCT_DEFINITION_CONTEXT('part definition',#527,'design');
#523=PRODUCT_DEFINITION('ENG000025993','ENG000025993',#524,#522);
#524=PRODUCT_DEFINITION_FORMATION('00',$,#529);
#525=PRODUCT_RELATED_PRODUCT_CATEGORY('ENG000025993','ENG000025993',(#529));
#526=APPLICATION_PROTOCOL_DEFINITION('international standard',
'automotive_design',2009,#527);
#527=APPLICATION_CONTEXT(
'Core Data for Automotive Mechanical Design Process');
#528=PRODUCT_CONTEXT('part definition',#527,'mechanical');
#529=PRODUCT('ENG000025993','ENG000025993','SIMPLE',(#528));
#530=PRESENTATION_STYLE_ASSIGNMENT((#531));
#531=SURFACE_STYLE_USAGE(.BOTH.,#534);
#532=SURFACE_STYLE_RENDERING_WITH_PROPERTIES($,#538,(#533));
#533=SURFACE_STYLE_TRANSPARENT(0.);
#534=SURFACE_SIDE_STYLE('',(#535,#532));
#535=SURFACE_STYLE_FILL_AREA(#536);
#536=FILL_AREA_STYLE('',(#537));
#537=FILL_AREA_STYLE_COLOUR('',#538);
#538=COLOUR_RGB('',1.,1.,1.);
ENDSEC;
END-ISO-10303-21;
