ISO-10303-21;
HEADER;
/* Generated by software containing ST-Developer
 * from STEP Tools, Inc. (www.steptools.com) 
 */

FILE_DESCRIPTION(
/* description */ ('This is a sample STEP configuration'),
/* implementation_level */ '2;1');

FILE_NAME(
/* name */ '110-01112xxxxxxxx SIMPLE.ipt_Rev_00.1.stp',
/* time_stamp */ '2023-04-26T12:46:22+02:00',
/* author */ ('powerJobs'),
/* organization */ ('coolOrange'),
/* preprocessor_version */ 'ST-DEVELOPER v19.2',
/* originating_system */ 'Autodesk Inventor 2023',
/* authorisation */ '');

FILE_SCHEMA (('AUTOMOTIVE_DESIGN { 1 0 10303 214 3 1 1 }'));
ENDSEC;

DATA;
#10=MECHANICAL_DESIGN_GEOMETRIC_PRESENTATION_REPRESENTATION('',(#13),#514);
#11=SHAPE_REPRESENTATION_RELATIONSHIP('SRR','None',#521,#12);
#12=ADVANCED_BREP_SHAPE_REPRESENTATION('',(#14),#513);
#13=STYLED_ITEM('',(#530),#14);
#14=MANIFOLD_SOLID_BREP('Volumenk\X\F6rper1',#266);
#15=CYLINDRICAL_SURFACE('',#323,5.00000000000001);
#16=CYLINDRICAL_SURFACE('',#327,38.6273855912471);
#17=FACE_BOUND('',#49,.T.);
#18=PLANE('',#310);
#19=PLANE('',#317);
#20=PLANE('',#326);
#21=TOROIDAL_SURFACE('',#305,64.5862076080205,18.5);
#22=TOROIDAL_SURFACE('',#315,64.5862076080205,22.);
#23=TOROIDAL_SURFACE('',#321,32.0762298977831,0.2);
#24=TOROIDAL_SURFACE('',#331,65.,59.9999999999999);
#25=FACE_OUTER_BOUND('',#42,.T.);
#26=FACE_OUTER_BOUND('',#43,.T.);
#27=FACE_OUTER_BOUND('',#44,.T.);
#28=FACE_OUTER_BOUND('',#45,.T.);
#29=FACE_OUTER_BOUND('',#46,.T.);
#30=FACE_OUTER_BOUND('',#47,.T.);
#31=FACE_OUTER_BOUND('',#48,.T.);
#32=FACE_OUTER_BOUND('',#50,.T.);
#33=FACE_OUTER_BOUND('',#51,.T.);
#34=FACE_OUTER_BOUND('',#52,.T.);
#35=FACE_OUTER_BOUND('',#53,.T.);
#36=FACE_OUTER_BOUND('',#54,.T.);
#37=FACE_OUTER_BOUND('',#55,.T.);
#38=FACE_OUTER_BOUND('',#56,.T.);
#39=FACE_OUTER_BOUND('',#57,.T.);
#40=FACE_OUTER_BOUND('',#58,.T.);
#41=FACE_OUTER_BOUND('',#59,.T.);
#42=EDGE_LOOP('',(#167,#168,#169,#170,#171,#172));
#43=EDGE_LOOP('',(#173,#174,#175,#176,#177));
#44=EDGE_LOOP('',(#178,#179,#180,#181,#182,#183));
#45=EDGE_LOOP('',(#184,#185,#186,#187,#188));
#46=EDGE_LOOP('',(#189,#190,#191,#192,#193,#194));
#47=EDGE_LOOP('',(#195,#196,#197,#198,#199,#200));
#48=EDGE_LOOP('',(#201));
#49=EDGE_LOOP('',(#202));
#50=EDGE_LOOP('',(#203,#204,#205,#206,#207));
#51=EDGE_LOOP('',(#208,#209,#210,#211,#212,#213));
#52=EDGE_LOOP('',(#214));
#53=EDGE_LOOP('',(#215,#216,#217,#218));
#54=EDGE_LOOP('',(#219,#220,#221,#222,#223));
#55=EDGE_LOOP('',(#224,#225,#226,#227));
#56=EDGE_LOOP('',(#228));
#57=EDGE_LOOP('',(#229,#230,#231,#232));
#58=EDGE_LOOP('',(#233,#234,#235,#236));
#59=EDGE_LOOP('',(#237,#238,#239,#240));
#60=LINE('',#439,#70);
#61=LINE('',#450,#71);
#62=LINE('',#457,#72);
#63=LINE('',#462,#73);
#64=LINE('',#470,#74);
#65=LINE('',#482,#75);
#66=LINE('',#490,#76);
#67=LINE('',#498,#77);
#68=LINE('',#503,#78);
#69=LINE('',#507,#79);
#70=VECTOR('',#339,35.3691725622818);
#71=VECTOR('',#352,35.3691725622818);
#72=VECTOR('',#361,55.6075296933832);
#73=VECTOR('',#366,76.6485166844851);
#74=VECTOR('',#377,55.6075296933832);
#75=VECTOR('',#392,76.6485166844851);
#76=VECTOR('',#403,27.5);
#77=VECTOR('',#414,5.00000000000001);
#78=VECTOR('',#421,38.6273855912471);
#79=VECTOR('',#426,31.8646021484397);
#80=CIRCLE('',#290,32.1261332515691);
#81=CIRCLE('',#291,34.2072208979722);
#82=CIRCLE('',#292,34.2072208979722);
#83=CIRCLE('',#293,32.1261332515691);
#84=CIRCLE('',#295,38.4405888847285);
#85=CIRCLE('',#296,38.4405888847285);
#86=CIRCLE('',#297,38.6273855912471);
#87=CIRCLE('',#299,76.8877420583296);
#88=CIRCLE('',#300,76.8877420583296);
#89=CIRCLE('',#302,63.453382250504);
#90=CIRCLE('',#303,82.8430383615464);
#91=CIRCLE('',#304,82.8430383615464);
#92=CIRCLE('',#306,18.5);
#93=CIRCLE('',#308,79.2150593867664);
#94=CIRCLE('',#309,79.2150593867664);
#95=CIRCLE('',#311,67.);
#96=CIRCLE('',#313,86.2970333689702);
#97=CIRCLE('',#314,86.2970333689702);
#98=CIRCLE('',#316,22.);
#99=CIRCLE('',#318,22.5);
#100=CIRCLE('',#320,32.1109595333164);
#101=CIRCLE('',#322,0.2);
#102=CIRCLE('',#324,5.00000000000001);
#103=CIRCLE('',#325,5.00000000000001);
#104=CIRCLE('',#328,38.6273855912471);
#105=CIRCLE('',#330,25.1018187056322);
#106=CIRCLE('',#332,59.9999999999999);
#107=VERTEX_POINT('',#435);
#108=VERTEX_POINT('',#436);
#109=VERTEX_POINT('',#438);
#110=VERTEX_POINT('',#440);
#111=VERTEX_POINT('',#445);
#112=VERTEX_POINT('',#446);
#113=VERTEX_POINT('',#449);
#114=VERTEX_POINT('',#453);
#115=VERTEX_POINT('',#454);
#116=VERTEX_POINT('',#459);
#117=VERTEX_POINT('',#461);
#118=VERTEX_POINT('',#463);
#119=VERTEX_POINT('',#469);
#120=VERTEX_POINT('',#471);
#121=VERTEX_POINT('',#475);
#122=VERTEX_POINT('',#478);
#123=VERTEX_POINT('',#479);
#124=VERTEX_POINT('',#486);
#125=VERTEX_POINT('',#489);
#126=VERTEX_POINT('',#495);
#127=VERTEX_POINT('',#497);
#128=VERTEX_POINT('',#502);
#129=VERTEX_POINT('',#506);
#130=EDGE_CURVE('',#107,#108,#80,.T.);
#131=EDGE_CURVE('',#107,#109,#60,.T.);
#132=EDGE_CURVE('',#110,#109,#81,.T.);
#133=EDGE_CURVE('',#109,#110,#82,.T.);
#134=EDGE_CURVE('',#108,#107,#83,.T.);
#135=EDGE_CURVE('',#111,#112,#84,.T.);
#136=EDGE_CURVE('',#112,#111,#85,.T.);
#137=EDGE_CURVE('',#112,#113,#61,.T.);
#138=EDGE_CURVE('',#113,#113,#86,.T.);
#139=EDGE_CURVE('',#114,#115,#87,.T.);
#140=EDGE_CURVE('',#115,#114,#88,.T.);
#141=EDGE_CURVE('',#115,#110,#62,.T.);
#142=EDGE_CURVE('',#116,#116,#89,.T.);
#143=EDGE_CURVE('',#116,#117,#63,.T.);
#144=EDGE_CURVE('',#117,#118,#90,.T.);
#145=EDGE_CURVE('',#118,#117,#91,.T.);
#146=EDGE_CURVE('',#118,#114,#92,.T.);
#147=EDGE_CURVE('',#111,#119,#64,.T.);
#148=EDGE_CURVE('',#119,#120,#93,.T.);
#149=EDGE_CURVE('',#120,#119,#94,.T.);
#150=EDGE_CURVE('',#121,#121,#95,.T.);
#151=EDGE_CURVE('',#122,#123,#96,.T.);
#152=EDGE_CURVE('',#123,#122,#97,.T.);
#153=EDGE_CURVE('',#123,#121,#65,.T.);
#154=EDGE_CURVE('',#120,#122,#98,.T.);
#155=EDGE_CURVE('',#124,#124,#99,.T.);
#156=EDGE_CURVE('',#124,#125,#66,.T.);
#157=EDGE_CURVE('',#125,#125,#100,.T.);
#158=EDGE_CURVE('',#108,#125,#101,.T.);
#159=EDGE_CURVE('',#126,#126,#102,.T.);
#160=EDGE_CURVE('',#126,#127,#67,.T.);
#161=EDGE_CURVE('',#127,#127,#103,.T.);
#162=EDGE_CURVE('',#113,#128,#68,.T.);
#163=EDGE_CURVE('',#128,#128,#104,.T.);
#164=EDGE_CURVE('',#128,#129,#69,.T.);
#165=EDGE_CURVE('',#129,#129,#105,.T.);
#166=EDGE_CURVE('',#126,#129,#106,.T.);
#167=ORIENTED_EDGE('',*,*,#130,.F.);
#168=ORIENTED_EDGE('',*,*,#131,.T.);
#169=ORIENTED_EDGE('',*,*,#132,.F.);
#170=ORIENTED_EDGE('',*,*,#133,.F.);
#171=ORIENTED_EDGE('',*,*,#131,.F.);
#172=ORIENTED_EDGE('',*,*,#134,.F.);
#173=ORIENTED_EDGE('',*,*,#135,.F.);
#174=ORIENTED_EDGE('',*,*,#136,.F.);
#175=ORIENTED_EDGE('',*,*,#137,.T.);
#176=ORIENTED_EDGE('',*,*,#138,.T.);
#177=ORIENTED_EDGE('',*,*,#137,.F.);
#178=ORIENTED_EDGE('',*,*,#139,.F.);
#179=ORIENTED_EDGE('',*,*,#140,.F.);
#180=ORIENTED_EDGE('',*,*,#141,.T.);
#181=ORIENTED_EDGE('',*,*,#132,.T.);
#182=ORIENTED_EDGE('',*,*,#133,.T.);
#183=ORIENTED_EDGE('',*,*,#141,.F.);
#184=ORIENTED_EDGE('',*,*,#142,.F.);
#185=ORIENTED_EDGE('',*,*,#143,.T.);
#186=ORIENTED_EDGE('',*,*,#144,.T.);
#187=ORIENTED_EDGE('',*,*,#145,.T.);
#188=ORIENTED_EDGE('',*,*,#143,.F.);
#189=ORIENTED_EDGE('',*,*,#145,.F.);
#190=ORIENTED_EDGE('',*,*,#146,.T.);
#191=ORIENTED_EDGE('',*,*,#139,.T.);
#192=ORIENTED_EDGE('',*,*,#140,.T.);
#193=ORIENTED_EDGE('',*,*,#146,.F.);
#194=ORIENTED_EDGE('',*,*,#144,.F.);
#195=ORIENTED_EDGE('',*,*,#135,.T.);
#196=ORIENTED_EDGE('',*,*,#136,.T.);
#197=ORIENTED_EDGE('',*,*,#147,.T.);
#198=ORIENTED_EDGE('',*,*,#148,.T.);
#199=ORIENTED_EDGE('',*,*,#149,.T.);
#200=ORIENTED_EDGE('',*,*,#147,.F.);
#201=ORIENTED_EDGE('',*,*,#150,.F.);
#202=ORIENTED_EDGE('',*,*,#142,.T.);
#203=ORIENTED_EDGE('',*,*,#151,.F.);
#204=ORIENTED_EDGE('',*,*,#152,.F.);
#205=ORIENTED_EDGE('',*,*,#153,.T.);
#206=ORIENTED_EDGE('',*,*,#150,.T.);
#207=ORIENTED_EDGE('',*,*,#153,.F.);
#208=ORIENTED_EDGE('',*,*,#149,.F.);
#209=ORIENTED_EDGE('',*,*,#154,.T.);
#210=ORIENTED_EDGE('',*,*,#151,.T.);
#211=ORIENTED_EDGE('',*,*,#152,.T.);
#212=ORIENTED_EDGE('',*,*,#154,.F.);
#213=ORIENTED_EDGE('',*,*,#148,.F.);
#214=ORIENTED_EDGE('',*,*,#155,.F.);
#215=ORIENTED_EDGE('',*,*,#155,.T.);
#216=ORIENTED_EDGE('',*,*,#156,.T.);
#217=ORIENTED_EDGE('',*,*,#157,.F.);
#218=ORIENTED_EDGE('',*,*,#156,.F.);
#219=ORIENTED_EDGE('',*,*,#130,.T.);
#220=ORIENTED_EDGE('',*,*,#158,.T.);
#221=ORIENTED_EDGE('',*,*,#157,.T.);
#222=ORIENTED_EDGE('',*,*,#158,.F.);
#223=ORIENTED_EDGE('',*,*,#134,.T.);
#224=ORIENTED_EDGE('',*,*,#159,.T.);
#225=ORIENTED_EDGE('',*,*,#160,.T.);
#226=ORIENTED_EDGE('',*,*,#161,.T.);
#227=ORIENTED_EDGE('',*,*,#160,.F.);
#228=ORIENTED_EDGE('',*,*,#161,.F.);
#229=ORIENTED_EDGE('',*,*,#138,.F.);
#230=ORIENTED_EDGE('',*,*,#162,.T.);
#231=ORIENTED_EDGE('',*,*,#163,.T.);
#232=ORIENTED_EDGE('',*,*,#162,.F.);
#233=ORIENTED_EDGE('',*,*,#163,.F.);
#234=ORIENTED_EDGE('',*,*,#164,.T.);
#235=ORIENTED_EDGE('',*,*,#165,.T.);
#236=ORIENTED_EDGE('',*,*,#164,.F.);
#237=ORIENTED_EDGE('',*,*,#159,.F.);
#238=ORIENTED_EDGE('',*,*,#166,.T.);
#239=ORIENTED_EDGE('',*,*,#165,.F.);
#240=ORIENTED_EDGE('',*,*,#166,.F.);
#241=CONICAL_SURFACE('',#289,35.3691725622818,1.35743926001146);
#242=CONICAL_SURFACE('',#294,35.3691725622818,1.35743926001146);
#243=CONICAL_SURFACE('',#298,53.2802123649463,0.843372389915155);
#244=CONICAL_SURFACE('',#301,73.1945216770613,0.162315620435473);
#245=CONICAL_SURFACE('',#307,55.6075296933832,0.843372389915155);
#246=CONICAL_SURFACE('',#312,76.6485166844851,0.162315620435473);
#247=CONICAL_SURFACE('',#319,27.5,1.39626340159546);
#248=CONICAL_SURFACE('',#329,31.8646021484397,0.843343094563661);
#249=ADVANCED_FACE('',(#25),#241,.T.);
#250=ADVANCED_FACE('',(#26),#242,.T.);
#251=ADVANCED_FACE('',(#27),#243,.F.);
#252=ADVANCED_FACE('',(#28),#244,.F.);
#253=ADVANCED_FACE('',(#29),#21,.F.);
#254=ADVANCED_FACE('',(#30),#245,.T.);
#255=ADVANCED_FACE('',(#31,#17),#18,.T.);
#256=ADVANCED_FACE('',(#32),#246,.T.);
#257=ADVANCED_FACE('',(#33),#22,.T.);
#258=ADVANCED_FACE('',(#34),#19,.T.);
#259=ADVANCED_FACE('',(#35),#247,.T.);
#260=ADVANCED_FACE('',(#36),#23,.T.);
#261=ADVANCED_FACE('',(#37),#15,.T.);
#262=ADVANCED_FACE('',(#38),#20,.T.);
#263=ADVANCED_FACE('',(#39),#16,.T.);
#264=ADVANCED_FACE('',(#40),#248,.T.);
#265=ADVANCED_FACE('',(#41),#24,.F.);
#266=CLOSED_SHELL('',(#249,#250,#251,#252,#253,#254,#255,#256,#257,#258,
#259,#260,#261,#262,#263,#264,#265));
#267=DERIVED_UNIT_ELEMENT(#270,1.);
#268=DERIVED_UNIT_ELEMENT(#516,-3.);
#269=DIMENSIONAL_EXPONENTS(0.,1.,0.,0.,0.,0.,0.);
#270=(
CONVERSION_BASED_UNIT('gram',#272)
MASS_UNIT()
NAMED_UNIT(#269)
);
#271=(
MASS_UNIT()
NAMED_UNIT(*)
SI_UNIT(.KILO.,.GRAM.)
);
#272=MASS_MEASURE_WITH_UNIT(MASS_MEASURE(0.001),#271);
#273=DERIVED_UNIT((#267,#268));
#274=MEASURE_REPRESENTATION_ITEM('density measure',
POSITIVE_RATIO_MEASURE(0.),#273);
#275=PROPERTY_DEFINITION_REPRESENTATION(#280,#277);
#276=PROPERTY_DEFINITION_REPRESENTATION(#281,#278);
#277=REPRESENTATION('material name',(#279),#513);
#278=REPRESENTATION('density',(#274),#513);
#279=DESCRIPTIVE_REPRESENTATION_ITEM('ACC.TECHN. INFO',
'ACC.TECHN. INFO');
#280=PROPERTY_DEFINITION('material property','material name',#523);
#281=PROPERTY_DEFINITION('material property','density of part',#523);
#282=DATE_TIME_ROLE('creation_date');
#283=APPLIED_DATE_AND_TIME_ASSIGNMENT(#284,#282,(#523));
#284=DATE_AND_TIME(#285,#286);
#285=CALENDAR_DATE(2022,6,5);
#286=LOCAL_TIME(0,0,0.,#287);
#287=COORDINATED_UNIVERSAL_TIME_OFFSET(0,0,.BEHIND.);
#288=AXIS2_PLACEMENT_3D('placement',#433,#333,#334);
#289=AXIS2_PLACEMENT_3D('',#434,#335,#336);
#290=AXIS2_PLACEMENT_3D('',#437,#337,#338);
#291=AXIS2_PLACEMENT_3D('',#441,#340,#341);
#292=AXIS2_PLACEMENT_3D('',#442,#342,#343);
#293=AXIS2_PLACEMENT_3D('',#443,#344,#345);
#294=AXIS2_PLACEMENT_3D('',#444,#346,#347);
#295=AXIS2_PLACEMENT_3D('',#447,#348,#349);
#296=AXIS2_PLACEMENT_3D('',#448,#350,#351);
#297=AXIS2_PLACEMENT_3D('',#451,#353,#354);
#298=AXIS2_PLACEMENT_3D('',#452,#355,#356);
#299=AXIS2_PLACEMENT_3D('',#455,#357,#358);
#300=AXIS2_PLACEMENT_3D('',#456,#359,#360);
#301=AXIS2_PLACEMENT_3D('',#458,#362,#363);
#302=AXIS2_PLACEMENT_3D('',#460,#364,#365);
#303=AXIS2_PLACEMENT_3D('',#464,#367,#368);
#304=AXIS2_PLACEMENT_3D('',#465,#369,#370);
#305=AXIS2_PLACEMENT_3D('',#466,#371,#372);
#306=AXIS2_PLACEMENT_3D('',#467,#373,#374);
#307=AXIS2_PLACEMENT_3D('',#468,#375,#376);
#308=AXIS2_PLACEMENT_3D('',#472,#378,#379);
#309=AXIS2_PLACEMENT_3D('',#473,#380,#381);
#310=AXIS2_PLACEMENT_3D('',#474,#382,#383);
#311=AXIS2_PLACEMENT_3D('',#476,#384,#385);
#312=AXIS2_PLACEMENT_3D('',#477,#386,#387);
#313=AXIS2_PLACEMENT_3D('',#480,#388,#389);
#314=AXIS2_PLACEMENT_3D('',#481,#390,#391);
#315=AXIS2_PLACEMENT_3D('',#483,#393,#394);
#316=AXIS2_PLACEMENT_3D('',#484,#395,#396);
#317=AXIS2_PLACEMENT_3D('',#485,#397,#398);
#318=AXIS2_PLACEMENT_3D('',#487,#399,#400);
#319=AXIS2_PLACEMENT_3D('',#488,#401,#402);
#320=AXIS2_PLACEMENT_3D('',#491,#404,#405);
#321=AXIS2_PLACEMENT_3D('',#492,#406,#407);
#322=AXIS2_PLACEMENT_3D('',#493,#408,#409);
#323=AXIS2_PLACEMENT_3D('',#494,#410,#411);
#324=AXIS2_PLACEMENT_3D('',#496,#412,#413);
#325=AXIS2_PLACEMENT_3D('',#499,#415,#416);
#326=AXIS2_PLACEMENT_3D('',#500,#417,#418);
#327=AXIS2_PLACEMENT_3D('',#501,#419,#420);
#328=AXIS2_PLACEMENT_3D('',#504,#422,#423);
#329=AXIS2_PLACEMENT_3D('',#505,#424,#425);
#330=AXIS2_PLACEMENT_3D('',#508,#427,#428);
#331=AXIS2_PLACEMENT_3D('',#509,#429,#430);
#332=AXIS2_PLACEMENT_3D('',#510,#431,#432);
#333=DIRECTION('axis',(0.,0.,1.));
#334=DIRECTION('refdir',(1.,0.,0.));
#335=DIRECTION('center_axis',(-8.14163551391782E-16,0.,1.));
#336=DIRECTION('ref_axis',(-1.,0.,0.));
#337=DIRECTION('center_axis',(8.14163551391782E-16,0.,-1.));
#338=DIRECTION('ref_axis',(-1.,0.,0.));
#339=DIRECTION('',(0.977325591084316,-1.1968786568462E-16,0.211742034116261));
#340=DIRECTION('center_axis',(0.,0.,1.));
#341=DIRECTION('ref_axis',(-5.98699295060655E-48,-1.,-8.70288455567612E-17));
#342=DIRECTION('center_axis',(0.,0.,1.));
#343=DIRECTION('ref_axis',(-5.98699295060655E-48,-1.,-8.70288455567612E-17));
#344=DIRECTION('center_axis',(8.14163551391782E-16,0.,-1.));
#345=DIRECTION('ref_axis',(-1.,0.,0.));
#346=DIRECTION('center_axis',(-8.14163551391782E-16,0.,1.));
#347=DIRECTION('ref_axis',(-1.,0.,0.));
#348=DIRECTION('center_axis',(0.,0.,-1.));
#349=DIRECTION('ref_axis',(-5.98699295060655E-48,-1.,-8.70288455567612E-17));
#350=DIRECTION('center_axis',(0.,0.,-1.));
#351=DIRECTION('ref_axis',(-5.98699295060655E-48,-1.,-8.70288455567612E-17));
#352=DIRECTION('',(0.977325591084316,-1.1968786568462E-16,0.211742034116261));
#353=DIRECTION('center_axis',(2.22044604925031E-16,-6.74075480535537E-33,
-1.));
#354=DIRECTION('ref_axis',(1.,2.73815258661214E-16,2.22044604925031E-16));
#355=DIRECTION('center_axis',(0.,0.,-1.));
#356=DIRECTION('ref_axis',(-5.98699295060655E-48,-1.,-8.70288455567612E-17));
#357=DIRECTION('center_axis',(0.,0.,1.));
#358=DIRECTION('ref_axis',(1.,-5.98699295060655E-48,6.05352772521446E-80));
#359=DIRECTION('center_axis',(0.,0.,1.));
#360=DIRECTION('ref_axis',(1.,-5.98699295060655E-48,6.05352772521446E-80));
#361=DIRECTION('',(9.14676234962484E-17,-0.746889826192595,0.664947808124815));
#362=DIRECTION('center_axis',(0.,0.,1.));
#363=DIRECTION('ref_axis',(-5.98699295060655E-48,-1.,-8.70288455567612E-17));
#364=DIRECTION('center_axis',(0.,0.,1.));
#365=DIRECTION('ref_axis',(-5.98699295060655E-48,-1.,-8.70288455567612E-17));
#366=DIRECTION('',(-1.97907602244213E-17,0.161603821103361,0.986855716406807));
#367=DIRECTION('center_axis',(0.,0.,1.));
#368=DIRECTION('ref_axis',(1.,-5.98699295060655E-48,6.05352772521446E-80));
#369=DIRECTION('center_axis',(0.,0.,1.));
#370=DIRECTION('ref_axis',(1.,-5.98699295060655E-48,6.05352772521446E-80));
#371=DIRECTION('center_axis',(0.,0.,1.));
#372=DIRECTION('ref_axis',(1.,0.,0.));
#373=DIRECTION('center_axis',(-1.22464679914735E-16,1.,0.));
#374=DIRECTION('ref_axis',(-1.,-1.22464679914735E-16,0.));
#375=DIRECTION('center_axis',(0.,0.,-1.));
#376=DIRECTION('ref_axis',(-5.98699295060655E-48,-1.,-8.70288455567612E-17));
#377=DIRECTION('',(-9.14676234962484E-17,0.746889826192595,-0.664947808124815));
#378=DIRECTION('center_axis',(0.,0.,1.));
#379=DIRECTION('ref_axis',(1.,-5.98699295060655E-48,6.05352772521446E-80));
#380=DIRECTION('center_axis',(0.,0.,1.));
#381=DIRECTION('ref_axis',(1.,-5.98699295060655E-48,6.05352772521446E-80));
#382=DIRECTION('center_axis',(0.,0.,-1.));
#383=DIRECTION('ref_axis',(-1.,5.98699295060655E-48,-6.05352772521446E-80));
#384=DIRECTION('center_axis',(0.,0.,1.));
#385=DIRECTION('ref_axis',(1.,-5.98699295060655E-48,6.05352772521446E-80));
#386=DIRECTION('center_axis',(0.,0.,1.));
#387=DIRECTION('ref_axis',(-5.98699295060655E-48,-1.,-8.70288455567612E-17));
#388=DIRECTION('center_axis',(0.,0.,1.));
#389=DIRECTION('ref_axis',(1.,-5.98699295060655E-48,6.05352772521446E-80));
#390=DIRECTION('center_axis',(0.,0.,1.));
#391=DIRECTION('ref_axis',(1.,-5.98699295060655E-48,6.05352772521446E-80));
#392=DIRECTION('',(1.97907602244213E-17,-0.161603821103361,-0.986855716406807));
#393=DIRECTION('center_axis',(0.,0.,1.));
#394=DIRECTION('ref_axis',(1.,0.,0.));
#395=DIRECTION('center_axis',(1.22464679914735E-16,-1.,0.));
#396=DIRECTION('ref_axis',(-1.,-1.22464679914735E-16,0.));
#397=DIRECTION('center_axis',(1.45947178162852E-16,-2.46519032881566E-32,
-1.));
#398=DIRECTION('ref_axis',(-0.942954607552629,0.332921324182255,-1.37621564107966E-16));
#399=DIRECTION('center_axis',(-1.45947178162852E-16,2.46519032881566E-32,
1.));
#400=DIRECTION('ref_axis',(0.94295460755263,-0.332921324182255,1.37621564107966E-16));
#401=DIRECTION('center_axis',(-1.45947178162853E-16,8.93631494195677E-32,
1.));
#402=DIRECTION('ref_axis',(0.94295460755263,-0.332921324182255,1.73804310446411E-16));
#403=DIRECTION('',(-0.928629008256413,0.327863501197776,0.17364817766693));
#404=DIRECTION('center_axis',(-1.45947178162853E-16,8.93631494195677E-32,
1.));
#405=DIRECTION('ref_axis',(0.942954607552629,-0.332921324182255,1.37267928705061E-16));
#406=DIRECTION('center_axis',(-1.45947178162853E-16,8.93631494195677E-32,
1.));
#407=DIRECTION('ref_axis',(0.94295460755263,-0.332921324182255,1.37590174334632E-16));
#408=DIRECTION('center_axis',(-0.332921324182256,-0.942954607552629,-4.85889278146404E-17));
#409=DIRECTION('ref_axis',(-0.94295460755263,0.332921324182255,-1.37590174334632E-16));
#410=DIRECTION('center_axis',(2.44929359829471E-16,2.71425396340455E-48,
-1.));
#411=DIRECTION('ref_axis',(-1.,-1.60287544218911E-33,-2.44929359829471E-16));
#412=DIRECTION('center_axis',(-2.44929359829471E-16,-2.71425396340455E-48,
1.));
#413=DIRECTION('ref_axis',(-1.,-1.60287544218911E-33,-2.44929359829471E-16));
#414=DIRECTION('',(-2.44929359829471E-16,-2.71425396340455E-48,1.));
#415=DIRECTION('center_axis',(2.44929359829471E-16,2.71425396340455E-48,
-1.));
#416=DIRECTION('ref_axis',(1.,1.60287544218911E-33,2.44929359829471E-16));
#417=DIRECTION('center_axis',(-2.44929359829471E-16,-2.71425396340455E-48,
1.));
#418=DIRECTION('ref_axis',(1.,1.60287544218911E-33,2.44929359829471E-16));
#419=DIRECTION('center_axis',(2.22044604925031E-16,-6.74075480535537E-33,
-1.));
#420=DIRECTION('ref_axis',(-1.,-2.73815258661214E-16,-2.22044604925031E-16));
#421=DIRECTION('',(-2.22044604925031E-16,6.74075480535537E-33,1.));
#422=DIRECTION('center_axis',(2.22044604925031E-16,-6.74075480535537E-33,
-1.));
#423=DIRECTION('ref_axis',(1.,2.73815258661214E-16,2.22044604925031E-16));
#424=DIRECTION('center_axis',(2.22044604925031E-16,-6.74075480535537E-33,
-1.));
#425=DIRECTION('ref_axis',(-1.,-2.73815258661214E-16,-2.22044604925031E-16));
#426=DIRECTION('',(-0.746870345992336,-1.13039259114523E-16,0.664969688239463));
#427=DIRECTION('center_axis',(2.22044604925031E-16,-6.74075480535537E-33,
-1.));
#428=DIRECTION('ref_axis',(1.,2.73815258661214E-16,2.22044604925031E-16));
#429=DIRECTION('center_axis',(2.22044604925031E-16,-6.74075480535537E-33,
-1.));
#430=DIRECTION('ref_axis',(-1.,-2.73815258661214E-16,-2.27373675443232E-16));
#431=DIRECTION('center_axis',(1.51350578746479E-16,-1.,4.03473342682921E-32));
#432=DIRECTION('ref_axis',(1.,1.51350578746479E-16,2.1316282072803E-16));
#433=CARTESIAN_POINT('',(0.,0.,0.));
#434=CARTESIAN_POINT('Origin',(-4.17490927886175E-15,0.,-3.68692185293069));
#435=CARTESIAN_POINT('',(32.1261332515691,-3.76304876895581E-15,-4.38954106871061));
#436=CARTESIAN_POINT('',(-30.2934853724168,10.695474822968,-4.38954106871063));
#437=CARTESIAN_POINT('Origin',(-2.27618566391218E-15,1.71267856595726E-16,
-4.38954106871061));
#438=CARTESIAN_POINT('',(34.2072208979722,-4.18917635804282E-15,-3.93866396547755));
#439=CARTESIAN_POINT('',(35.3691725622818,-4.33147439668888E-15,-3.68692185293069));
#440=CARTESIAN_POINT('',(-1.41882473441816E-15,34.2072208979722,-3.93866396547755));
#441=CARTESIAN_POINT('Origin',(2.77035162362465E-15,3.21925385546157E-16,
-3.93866396547755));
#442=CARTESIAN_POINT('Origin',(2.77035162362465E-15,3.21925385546157E-16,
-3.93866396547755));
#443=CARTESIAN_POINT('Origin',(-2.27618566391218E-15,1.71267856595726E-16,
-4.38954106871061));
#444=CARTESIAN_POINT('Origin',(-4.17490927886175E-15,0.,-3.68692185293069));
#445=CARTESIAN_POINT('',(7.47796603712686E-15,38.4405888847285,-3.02148553808785));
#446=CARTESIAN_POINT('',(38.4405888847284,-4.7076144135022E-15,-3.02148553808785));
#447=CARTESIAN_POINT('Origin',(2.77035162362465E-15,3.21925385546157E-16,
-3.02148553808785));
#448=CARTESIAN_POINT('Origin',(2.77035162362465E-15,3.21925385546157E-16,
-3.02148553808785));
#449=CARTESIAN_POINT('',(38.6273855912471,-4.73049041237514E-15,-2.98101518208233));
#450=CARTESIAN_POINT('',(35.3691725622818,-4.33147439668888E-15,-3.68692185293069));
#451=CARTESIAN_POINT('Origin',(1.39176784639047E-14,1.72274916441756E-15,
-2.98101518208237));
#452=CARTESIAN_POINT('Origin',(2.77035162362465E-15,3.21925385546157E-16,
-20.9191387632121));
#453=CARTESIAN_POINT('',(-76.8877420583296,-9.0941073349939E-15,-41.9366631347502));
#454=CARTESIAN_POINT('',(-6.64568109691541E-15,76.8877420583296,-41.9366631347502));
#455=CARTESIAN_POINT('Origin',(2.77035162362465E-15,3.21925385546157E-16,
-41.9366631347502));
#456=CARTESIAN_POINT('Origin',(2.77035162362465E-15,3.21925385546157E-16,
-41.9366631347502));
#457=CARTESIAN_POINT('',(-3.75459252943762E-15,53.2802123649463,-20.9191387632121));
#458=CARTESIAN_POINT('Origin',(2.77035162362465E-15,3.21925385546157E-16,
-117.663775223577));
#459=CARTESIAN_POINT('',(-5.00044652319066E-15,63.453382250504,-177.149368211291));
#460=CARTESIAN_POINT('Origin',(2.77035162362465E-15,3.21925385546157E-16,
-177.149368211291));
#461=CARTESIAN_POINT('',(-7.37499455248627E-15,82.8430383615464,-58.7437956097253));
#462=CARTESIAN_POINT('',(-6.19339204506881E-15,73.1945216770613,-117.663775223577));
#463=CARTESIAN_POINT('',(-82.8430383615464,-9.82342079056476E-15,-58.7437956097254));
#464=CARTESIAN_POINT('Origin',(2.77035162362465E-15,3.21925385546159E-16,
-58.7437956097254));
#465=CARTESIAN_POINT('Origin',(2.77035162362465E-15,3.21925385546159E-16,
-58.7437956097254));
#466=CARTESIAN_POINT('Origin',(2.77035162362465E-15,3.21925385546161E-16,
-55.7541249193132));
#467=CARTESIAN_POINT('Origin',(-64.5862076080205,-7.58760385607671E-15,
-55.7541249193132));
#468=CARTESIAN_POINT('Origin',(2.77035162362465E-15,3.21925385546157E-16,
-18.3050243715381));
#469=CARTESIAN_POINT('',(-6.93069526860245E-15,79.2150593867664,-39.3225487430761));
#470=CARTESIAN_POINT('',(-4.03960670112466E-15,55.6075296933832,-18.3050243715381));
#471=CARTESIAN_POINT('',(-79.2150593867664,-9.37912150668094E-15,-39.3225487430761));
#472=CARTESIAN_POINT('Origin',(2.77035162362465E-15,3.21925385546157E-16,
-39.3225487430761));
#473=CARTESIAN_POINT('Origin',(2.77035162362465E-15,3.21925385546157E-16,
-39.3225487430761));
#474=CARTESIAN_POINT('Origin',(2.77035162362465E-15,-67.,-177.149368211291));
#475=CARTESIAN_POINT('',(-5.43478193066261E-15,67.,-177.149368211291));
#476=CARTESIAN_POINT('Origin',(2.77035162362465E-15,3.21925385546157E-16,
-177.149368211291));
#477=CARTESIAN_POINT('Origin',(2.77035162362465E-15,3.21925385546159E-16,
-118.229388597439));
#478=CARTESIAN_POINT('',(-86.2970333689702,-1.0246413183576E-14,-59.3094089835871));
#479=CARTESIAN_POINT('',(-7.79798694549752E-15,86.2970333689702,-59.3094089835871));
#480=CARTESIAN_POINT('Origin',(2.77035162362465E-15,3.21925385546157E-16,
-59.3094089835871));
#481=CARTESIAN_POINT('Origin',(2.77035162362465E-15,3.21925385546157E-16,
-59.3094089835871));
#482=CARTESIAN_POINT('',(-6.61638443808007E-15,76.6485166844851,-118.229388597439));
#483=CARTESIAN_POINT('Origin',(2.77035162362465E-15,3.21925385546161E-16,
-55.7541249193132));
#484=CARTESIAN_POINT('Origin',(-64.5862076080205,-7.58760385607671E-15,
-55.7541249193132));
#485=CARTESIAN_POINT('Origin',(-17.4446602397236,6.15904449737172,-6.08749999999999));
#486=CARTESIAN_POINT('',(-21.2164786699342,7.49072979410074,-6.08749999999999));
#487=CARTESIAN_POINT('Origin',(-2.15778955096019E-15,1.71267856595726E-16,
-6.08749999999999));
#488=CARTESIAN_POINT('Origin',(-2.28646167730207E-15,1.71267856595725E-16,
-5.20586509645766));
#489=CARTESIAN_POINT('',(-30.2791772448768,10.6904231685945,-4.39282852377906));
#490=CARTESIAN_POINT('',(-25.9312517076973,9.15533641501203,-5.20586509645767));
#491=CARTESIAN_POINT('Origin',(-2.40512207082771E-15,1.71267856595726E-16,
-4.39282852377906));
#492=CARTESIAN_POINT('Origin',(-2.43386805334472E-15,1.71267856595726E-16,
-4.19586697317662));
#493=CARTESIAN_POINT('Origin',(-30.2464287750319,10.6788609323444,-4.19586697317662));
#494=CARTESIAN_POINT('Origin',(-5.72567902646145E-15,3.82398483272467E-15,
141.7125));
#495=CARTESIAN_POINT('',(5.00000000000002,3.21166143315099E-15,55.2124999999998));
#496=CARTESIAN_POINT('Origin',(1.54607105987878E-14,3.82398483272467E-15,
55.2124999999998));
#497=CARTESIAN_POINT('',(4.99999999999998,3.21166143315099E-15,229.2125));
#498=CARTESIAN_POINT('',(5.,3.21166143315099E-15,141.7125));
#499=CARTESIAN_POINT('Origin',(-2.71569980115401E-14,3.82398483272467E-15,
229.2125));
#500=CARTESIAN_POINT('Origin',(-5.00000000000003,3.82398483272467E-15,229.2125));
#501=CARTESIAN_POINT('Origin',(1.37690284297211E-14,1.72274916441756E-15,
-2.31155494352426));
#502=CARTESIAN_POINT('',(38.6273855912471,7.56902632911621E-15,-1.64209470496615));
#503=CARTESIAN_POINT('',(38.6273855912471,7.56902632911621E-15,-2.31155494352425));
#504=CARTESIAN_POINT('Origin',(1.36203783955374E-14,1.72274916441756E-15,
-1.64209470496615));
#505=CARTESIAN_POINT('Origin',(1.22834063130016E-14,1.72274916441756E-15,
4.37909226774681));
#506=CARTESIAN_POINT('',(25.1018187056322,5.52192395310418E-15,10.4002792404598));
#507=CARTESIAN_POINT('',(31.8646021484397,6.54547514111019E-15,4.37909226774682));
#508=CARTESIAN_POINT('Origin',(1.09464342304658E-14,1.72274916441756E-15,
10.4002792404598));
#509=CARTESIAN_POINT('Origin',(9.96122376100461E-16,1.72274916441756E-15,
55.2124999999999));
#510=CARTESIAN_POINT('Origin',(65.,1.15605367829387E-14,55.2124999999999));
#511=UNCERTAINTY_MEASURE_WITH_UNIT(LENGTH_MEASURE(0.01),#515,
'DISTANCE_ACCURACY_VALUE',
'Maximum model space distance between geometric entities at asserted c
onnectivities');
#512=UNCERTAINTY_MEASURE_WITH_UNIT(LENGTH_MEASURE(0.01),#515,
'DISTANCE_ACCURACY_VALUE',
'Maximum model space distance between geometric entities at asserted c
onnectivities');
#513=(
GEOMETRIC_REPRESENTATION_CONTEXT(3)
GLOBAL_UNCERTAINTY_ASSIGNED_CONTEXT((#511))
GLOBAL_UNIT_ASSIGNED_CONTEXT((#515,#517,#518))
REPRESENTATION_CONTEXT('','3D')
);
#514=(
GEOMETRIC_REPRESENTATION_CONTEXT(3)
GLOBAL_UNCERTAINTY_ASSIGNED_CONTEXT((#512))
GLOBAL_UNIT_ASSIGNED_CONTEXT((#515,#517,#518))
REPRESENTATION_CONTEXT('','3D')
);
#515=(
LENGTH_UNIT()
NAMED_UNIT(*)
SI_UNIT(.MILLI.,.METRE.)
);
#516=(
LENGTH_UNIT()
NAMED_UNIT(*)
SI_UNIT(.CENTI.,.METRE.)
);
#517=(
NAMED_UNIT(*)
PLANE_ANGLE_UNIT()
SI_UNIT($,.RADIAN.)
);
#518=(
NAMED_UNIT(*)
SI_UNIT($,.STERADIAN.)
SOLID_ANGLE_UNIT()
);
#519=SHAPE_DEFINITION_REPRESENTATION(#520,#521);
#520=PRODUCT_DEFINITION_SHAPE('',$,#523);
#521=SHAPE_REPRESENTATION('',(#288),#513);
#522=PRODUCT_DEFINITION_CONTEXT('part definition',#527,'design');
#523=PRODUCT_DEFINITION('ENG000025994','ENG000025994',#524,#522);
#524=PRODUCT_DEFINITION_FORMATION('00',$,#529);
#525=PRODUCT_RELATED_PRODUCT_CATEGORY('ENG000025994','ENG000025994',(#529));
#526=APPLICATION_PROTOCOL_DEFINITION('international standard',
'automotive_design',2009,#527);
#527=APPLICATION_CONTEXT(
'Core Data for Automotive Mechanical Design Process');
#528=PRODUCT_CONTEXT('part definition',#527,'mechanical');
#529=PRODUCT('ENG000025994','ENG000025994','SIMPLE',(#528));
#530=PRESENTATION_STYLE_ASSIGNMENT((#531));
#531=SURFACE_STYLE_USAGE(.BOTH.,#534);
#532=SURFACE_STYLE_RENDERING_WITH_PROPERTIES($,#538,(#533));
#533=SURFACE_STYLE_TRANSPARENT(0.);
#534=SURFACE_SIDE_STYLE('',(#535,#532));
#535=SURFACE_STYLE_FILL_AREA(#536);
#536=FILL_AREA_STYLE('',(#537));
#537=FILL_AREA_STYLE_COLOUR('',#538);
#538=COLOUR_RGB('',1.,1.,1.);
ENDSEC;
END-ISO-10303-21;
