ISO-10303-21;
HEADER;
/* Generated by software containing ST-Developer
 * from STEP Tools, Inc. (www.steptools.com) 
 */

FILE_DESCRIPTION(
/* description */ ('This is a sample STEP configuration'),
/* implementation_level */ '2;1');

FILE_NAME(
/* name */ '110-01113xxxxxxxx SIMPLE.ipt_Rev_00.1.stp',
/* time_stamp */ '2023-04-26T12:46:47+02:00',
/* author */ ('powerJobs'),
/* organization */ ('coolOrange'),
/* preprocessor_version */ 'ST-DEVELOPER v19.2',
/* originating_system */ 'Autodesk Inventor 2023',
/* authorisation */ '');

FILE_SCHEMA (('AUTOMOTIVE_DESIGN { 1 0 10303 214 3 1 1 }'));
ENDSEC;

DATA;
#10=MECHANICAL_DESIGN_GEOMETRIC_PRESENTATION_REPRESENTATION('',(#13),#504);
#11=SHAPE_REPRESENTATION_RELATIONSHIP('SRR','None',#511,#12);
#12=ADVANCED_BREP_SHAPE_REPRESENTATION('',(#14),#503);
#13=STYLED_ITEM('',(#520),#14);
#14=MANIFOLD_SOLID_BREP('Volumenk\X\F6rper1',#261);
#15=CYLINDRICAL_SURFACE('',#317,5.00000000000001);
#16=CYLINDRICAL_SURFACE('',#321,38.6273855912471);
#17=FACE_BOUND('',#49,.T.);
#18=PLANE('',#304);
#19=PLANE('',#311);
#20=PLANE('',#320);
#21=TOROIDAL_SURFACE('',#299,145.750564556398,18.5);
#22=TOROIDAL_SURFACE('',#309,145.750564556398,22.);
#23=TOROIDAL_SURFACE('',#315,32.0762298977831,0.2);
#24=TOROIDAL_SURFACE('',#325,65.,59.9999999999999);
#25=FACE_OUTER_BOUND('',#42,.T.);
#26=FACE_OUTER_BOUND('',#43,.T.);
#27=FACE_OUTER_BOUND('',#44,.T.);
#28=FACE_OUTER_BOUND('',#45,.T.);
#29=FACE_OUTER_BOUND('',#46,.T.);
#30=FACE_OUTER_BOUND('',#47,.T.);
#31=FACE_OUTER_BOUND('',#48,.T.);
#32=FACE_OUTER_BOUND('',#50,.T.);
#33=FACE_OUTER_BOUND('',#51,.T.);
#34=FACE_OUTER_BOUND('',#52,.T.);
#35=FACE_OUTER_BOUND('',#53,.T.);
#36=FACE_OUTER_BOUND('',#54,.T.);
#37=FACE_OUTER_BOUND('',#55,.T.);
#38=FACE_OUTER_BOUND('',#56,.T.);
#39=FACE_OUTER_BOUND('',#57,.T.);
#40=FACE_OUTER_BOUND('',#58,.T.);
#41=FACE_OUTER_BOUND('',#59,.T.);
#42=EDGE_LOOP('',(#164,#165,#166,#167,#168));
#43=EDGE_LOOP('',(#169,#170,#171,#172,#173));
#44=EDGE_LOOP('',(#174,#175,#176,#177,#178));
#45=EDGE_LOOP('',(#179,#180,#181,#182,#183));
#46=EDGE_LOOP('',(#184,#185,#186,#187,#188,#189));
#47=EDGE_LOOP('',(#190,#191,#192,#193,#194));
#48=EDGE_LOOP('',(#195));
#49=EDGE_LOOP('',(#196));
#50=EDGE_LOOP('',(#197,#198,#199,#200,#201));
#51=EDGE_LOOP('',(#202,#203,#204,#205,#206,#207));
#52=EDGE_LOOP('',(#208));
#53=EDGE_LOOP('',(#209,#210,#211,#212));
#54=EDGE_LOOP('',(#213,#214,#215,#216,#217));
#55=EDGE_LOOP('',(#218,#219,#220,#221));
#56=EDGE_LOOP('',(#222));
#57=EDGE_LOOP('',(#223,#224,#225,#226,#227));
#58=EDGE_LOOP('',(#228,#229,#230,#231));
#59=EDGE_LOOP('',(#232,#233,#234,#235));
#60=LINE('',#430,#70);
#61=LINE('',#439,#71);
#62=LINE('',#447,#72);
#63=LINE('',#452,#73);
#64=LINE('',#460,#74);
#65=LINE('',#472,#75);
#66=LINE('',#480,#76);
#67=LINE('',#488,#77);
#68=LINE('',#493,#78);
#69=LINE('',#497,#79);
#70=VECTOR('',#333,35.3691725622818);
#71=VECTOR('',#342,35.3691725622818);
#72=VECTOR('',#353,96.1897081727127);
#73=VECTOR('',#358,163.730796079206);
#74=VECTOR('',#369,96.1897081727127);
#75=VECTOR('',#384,163.730796079206);
#76=VECTOR('',#395,27.5);
#77=VECTOR('',#406,5.00000000000001);
#78=VECTOR('',#413,38.6273855912471);
#79=VECTOR('',#418,31.8646021484397);
#80=CIRCLE('',#285,34.2072208933774);
#81=CIRCLE('',#286,32.1261332515685);
#82=CIRCLE('',#287,32.1261332515685);
#83=CIRCLE('',#289,38.6273855912471);
#84=CIRCLE('',#290,38.4405888782022);
#85=CIRCLE('',#291,38.6273855912471);
#86=CIRCLE('',#293,158.052099015353);
#87=CIRCLE('',#294,158.052099015353);
#88=CIRCLE('',#296,156.45341522237);
#89=CIRCLE('',#297,164.007565039909);
#90=CIRCLE('',#298,164.007565039909);
#91=CIRCLE('',#300,18.5);
#92=CIRCLE('',#302,160.379416345425);
#93=CIRCLE('',#303,160.379416345425);
#94=CIRCLE('',#305,160.);
#95=CIRCLE('',#307,167.461592158411);
#96=CIRCLE('',#308,167.461592158411);
#97=CIRCLE('',#310,22.);
#98=CIRCLE('',#312,22.5);
#99=CIRCLE('',#314,32.1109595333164);
#100=CIRCLE('',#316,0.2);
#101=CIRCLE('',#318,5.00000000000001);
#102=CIRCLE('',#319,5.00000000000001);
#103=CIRCLE('',#322,38.6273855912471);
#104=CIRCLE('',#324,25.1018187056322);
#105=CIRCLE('',#326,59.9999999999999);
#106=VERTEX_POINT('',#427);
#107=VERTEX_POINT('',#429);
#108=VERTEX_POINT('',#431);
#109=VERTEX_POINT('',#435);
#110=VERTEX_POINT('',#436);
#111=VERTEX_POINT('',#438);
#112=VERTEX_POINT('',#443);
#113=VERTEX_POINT('',#444);
#114=VERTEX_POINT('',#449);
#115=VERTEX_POINT('',#451);
#116=VERTEX_POINT('',#453);
#117=VERTEX_POINT('',#459);
#118=VERTEX_POINT('',#461);
#119=VERTEX_POINT('',#465);
#120=VERTEX_POINT('',#468);
#121=VERTEX_POINT('',#469);
#122=VERTEX_POINT('',#476);
#123=VERTEX_POINT('',#479);
#124=VERTEX_POINT('',#485);
#125=VERTEX_POINT('',#487);
#126=VERTEX_POINT('',#492);
#127=VERTEX_POINT('',#496);
#128=EDGE_CURVE('',#106,#106,#80,.T.);
#129=EDGE_CURVE('',#106,#107,#60,.T.);
#130=EDGE_CURVE('',#108,#107,#81,.T.);
#131=EDGE_CURVE('',#107,#108,#82,.T.);
#132=EDGE_CURVE('',#109,#110,#83,.T.);
#133=EDGE_CURVE('',#110,#111,#61,.T.);
#134=EDGE_CURVE('',#111,#111,#84,.T.);
#135=EDGE_CURVE('',#110,#109,#85,.T.);
#136=EDGE_CURVE('',#112,#113,#86,.T.);
#137=EDGE_CURVE('',#113,#112,#87,.T.);
#138=EDGE_CURVE('',#113,#106,#62,.T.);
#139=EDGE_CURVE('',#114,#114,#88,.T.);
#140=EDGE_CURVE('',#114,#115,#63,.T.);
#141=EDGE_CURVE('',#115,#116,#89,.T.);
#142=EDGE_CURVE('',#116,#115,#90,.T.);
#143=EDGE_CURVE('',#116,#112,#91,.T.);
#144=EDGE_CURVE('',#111,#117,#64,.T.);
#145=EDGE_CURVE('',#117,#118,#92,.T.);
#146=EDGE_CURVE('',#118,#117,#93,.T.);
#147=EDGE_CURVE('',#119,#119,#94,.T.);
#148=EDGE_CURVE('',#120,#121,#95,.T.);
#149=EDGE_CURVE('',#121,#120,#96,.T.);
#150=EDGE_CURVE('',#121,#119,#65,.T.);
#151=EDGE_CURVE('',#118,#120,#97,.T.);
#152=EDGE_CURVE('',#122,#122,#98,.T.);
#153=EDGE_CURVE('',#122,#123,#66,.T.);
#154=EDGE_CURVE('',#123,#123,#99,.T.);
#155=EDGE_CURVE('',#108,#123,#100,.T.);
#156=EDGE_CURVE('',#124,#124,#101,.T.);
#157=EDGE_CURVE('',#124,#125,#67,.T.);
#158=EDGE_CURVE('',#125,#125,#102,.T.);
#159=EDGE_CURVE('',#109,#126,#68,.T.);
#160=EDGE_CURVE('',#126,#126,#103,.T.);
#161=EDGE_CURVE('',#126,#127,#69,.T.);
#162=EDGE_CURVE('',#127,#127,#104,.T.);
#163=EDGE_CURVE('',#124,#127,#105,.T.);
#164=ORIENTED_EDGE('',*,*,#128,.F.);
#165=ORIENTED_EDGE('',*,*,#129,.T.);
#166=ORIENTED_EDGE('',*,*,#130,.F.);
#167=ORIENTED_EDGE('',*,*,#131,.F.);
#168=ORIENTED_EDGE('',*,*,#129,.F.);
#169=ORIENTED_EDGE('',*,*,#132,.T.);
#170=ORIENTED_EDGE('',*,*,#133,.T.);
#171=ORIENTED_EDGE('',*,*,#134,.F.);
#172=ORIENTED_EDGE('',*,*,#133,.F.);
#173=ORIENTED_EDGE('',*,*,#135,.T.);
#174=ORIENTED_EDGE('',*,*,#136,.F.);
#175=ORIENTED_EDGE('',*,*,#137,.F.);
#176=ORIENTED_EDGE('',*,*,#138,.T.);
#177=ORIENTED_EDGE('',*,*,#128,.T.);
#178=ORIENTED_EDGE('',*,*,#138,.F.);
#179=ORIENTED_EDGE('',*,*,#139,.F.);
#180=ORIENTED_EDGE('',*,*,#140,.T.);
#181=ORIENTED_EDGE('',*,*,#141,.T.);
#182=ORIENTED_EDGE('',*,*,#142,.T.);
#183=ORIENTED_EDGE('',*,*,#140,.F.);
#184=ORIENTED_EDGE('',*,*,#142,.F.);
#185=ORIENTED_EDGE('',*,*,#143,.T.);
#186=ORIENTED_EDGE('',*,*,#136,.T.);
#187=ORIENTED_EDGE('',*,*,#137,.T.);
#188=ORIENTED_EDGE('',*,*,#143,.F.);
#189=ORIENTED_EDGE('',*,*,#141,.F.);
#190=ORIENTED_EDGE('',*,*,#134,.T.);
#191=ORIENTED_EDGE('',*,*,#144,.T.);
#192=ORIENTED_EDGE('',*,*,#145,.T.);
#193=ORIENTED_EDGE('',*,*,#146,.T.);
#194=ORIENTED_EDGE('',*,*,#144,.F.);
#195=ORIENTED_EDGE('',*,*,#147,.F.);
#196=ORIENTED_EDGE('',*,*,#139,.T.);
#197=ORIENTED_EDGE('',*,*,#148,.F.);
#198=ORIENTED_EDGE('',*,*,#149,.F.);
#199=ORIENTED_EDGE('',*,*,#150,.T.);
#200=ORIENTED_EDGE('',*,*,#147,.T.);
#201=ORIENTED_EDGE('',*,*,#150,.F.);
#202=ORIENTED_EDGE('',*,*,#146,.F.);
#203=ORIENTED_EDGE('',*,*,#151,.T.);
#204=ORIENTED_EDGE('',*,*,#148,.T.);
#205=ORIENTED_EDGE('',*,*,#149,.T.);
#206=ORIENTED_EDGE('',*,*,#151,.F.);
#207=ORIENTED_EDGE('',*,*,#145,.F.);
#208=ORIENTED_EDGE('',*,*,#152,.F.);
#209=ORIENTED_EDGE('',*,*,#152,.T.);
#210=ORIENTED_EDGE('',*,*,#153,.T.);
#211=ORIENTED_EDGE('',*,*,#154,.F.);
#212=ORIENTED_EDGE('',*,*,#153,.F.);
#213=ORIENTED_EDGE('',*,*,#131,.T.);
#214=ORIENTED_EDGE('',*,*,#155,.T.);
#215=ORIENTED_EDGE('',*,*,#154,.T.);
#216=ORIENTED_EDGE('',*,*,#155,.F.);
#217=ORIENTED_EDGE('',*,*,#130,.T.);
#218=ORIENTED_EDGE('',*,*,#156,.T.);
#219=ORIENTED_EDGE('',*,*,#157,.T.);
#220=ORIENTED_EDGE('',*,*,#158,.T.);
#221=ORIENTED_EDGE('',*,*,#157,.F.);
#222=ORIENTED_EDGE('',*,*,#158,.F.);
#223=ORIENTED_EDGE('',*,*,#132,.F.);
#224=ORIENTED_EDGE('',*,*,#159,.T.);
#225=ORIENTED_EDGE('',*,*,#160,.T.);
#226=ORIENTED_EDGE('',*,*,#159,.F.);
#227=ORIENTED_EDGE('',*,*,#135,.F.);
#228=ORIENTED_EDGE('',*,*,#160,.F.);
#229=ORIENTED_EDGE('',*,*,#161,.T.);
#230=ORIENTED_EDGE('',*,*,#162,.T.);
#231=ORIENTED_EDGE('',*,*,#161,.F.);
#232=ORIENTED_EDGE('',*,*,#156,.F.);
#233=ORIENTED_EDGE('',*,*,#163,.T.);
#234=ORIENTED_EDGE('',*,*,#162,.F.);
#235=ORIENTED_EDGE('',*,*,#163,.F.);
#236=CONICAL_SURFACE('',#284,35.3691725622818,1.35743926001146);
#237=CONICAL_SURFACE('',#288,35.3691725622818,1.35743926001146);
#238=CONICAL_SURFACE('',#292,93.8623908426401,0.843372389289435);
#239=CONICAL_SURFACE('',#295,160.276768960704,0.162258838456852);
#240=CONICAL_SURFACE('',#301,96.1897081727127,0.843372389289435);
#241=CONICAL_SURFACE('',#306,163.730796079206,0.162258838456852);
#242=CONICAL_SURFACE('',#313,27.5,1.39626340159546);
#243=CONICAL_SURFACE('',#323,31.8646021484397,0.843343094563661);
#244=ADVANCED_FACE('',(#25),#236,.T.);
#245=ADVANCED_FACE('',(#26),#237,.T.);
#246=ADVANCED_FACE('',(#27),#238,.F.);
#247=ADVANCED_FACE('',(#28),#239,.F.);
#248=ADVANCED_FACE('',(#29),#21,.F.);
#249=ADVANCED_FACE('',(#30),#240,.T.);
#250=ADVANCED_FACE('',(#31,#17),#18,.T.);
#251=ADVANCED_FACE('',(#32),#241,.T.);
#252=ADVANCED_FACE('',(#33),#22,.T.);
#253=ADVANCED_FACE('',(#34),#19,.T.);
#254=ADVANCED_FACE('',(#35),#242,.T.);
#255=ADVANCED_FACE('',(#36),#23,.T.);
#256=ADVANCED_FACE('',(#37),#15,.T.);
#257=ADVANCED_FACE('',(#38),#20,.T.);
#258=ADVANCED_FACE('',(#39),#16,.T.);
#259=ADVANCED_FACE('',(#40),#243,.T.);
#260=ADVANCED_FACE('',(#41),#24,.F.);
#261=CLOSED_SHELL('',(#244,#245,#246,#247,#248,#249,#250,#251,#252,#253,
#254,#255,#256,#257,#258,#259,#260));
#262=DERIVED_UNIT_ELEMENT(#265,1.);
#263=DERIVED_UNIT_ELEMENT(#506,-3.);
#264=DIMENSIONAL_EXPONENTS(0.,1.,0.,0.,0.,0.,0.);
#265=(
CONVERSION_BASED_UNIT('gram',#267)
MASS_UNIT()
NAMED_UNIT(#264)
);
#266=(
MASS_UNIT()
NAMED_UNIT(*)
SI_UNIT(.KILO.,.GRAM.)
);
#267=MASS_MEASURE_WITH_UNIT(MASS_MEASURE(0.001),#266);
#268=DERIVED_UNIT((#262,#263));
#269=MEASURE_REPRESENTATION_ITEM('density measure',
POSITIVE_RATIO_MEASURE(0.),#268);
#270=PROPERTY_DEFINITION_REPRESENTATION(#275,#272);
#271=PROPERTY_DEFINITION_REPRESENTATION(#276,#273);
#272=REPRESENTATION('material name',(#274),#503);
#273=REPRESENTATION('density',(#269),#503);
#274=DESCRIPTIVE_REPRESENTATION_ITEM('ACC.TECHN. INFO',
'ACC.TECHN. INFO');
#275=PROPERTY_DEFINITION('material property','material name',#513);
#276=PROPERTY_DEFINITION('material property','density of part',#513);
#277=DATE_TIME_ROLE('creation_date');
#278=APPLIED_DATE_AND_TIME_ASSIGNMENT(#279,#277,(#513));
#279=DATE_AND_TIME(#280,#281);
#280=CALENDAR_DATE(2022,6,5);
#281=LOCAL_TIME(0,0,0.,#282);
#282=COORDINATED_UNIVERSAL_TIME_OFFSET(0,0,.BEHIND.);
#283=AXIS2_PLACEMENT_3D('placement',#425,#327,#328);
#284=AXIS2_PLACEMENT_3D('',#426,#329,#330);
#285=AXIS2_PLACEMENT_3D('',#428,#331,#332);
#286=AXIS2_PLACEMENT_3D('',#432,#334,#335);
#287=AXIS2_PLACEMENT_3D('',#433,#336,#337);
#288=AXIS2_PLACEMENT_3D('',#434,#338,#339);
#289=AXIS2_PLACEMENT_3D('',#437,#340,#341);
#290=AXIS2_PLACEMENT_3D('',#440,#343,#344);
#291=AXIS2_PLACEMENT_3D('',#441,#345,#346);
#292=AXIS2_PLACEMENT_3D('',#442,#347,#348);
#293=AXIS2_PLACEMENT_3D('',#445,#349,#350);
#294=AXIS2_PLACEMENT_3D('',#446,#351,#352);
#295=AXIS2_PLACEMENT_3D('',#448,#354,#355);
#296=AXIS2_PLACEMENT_3D('',#450,#356,#357);
#297=AXIS2_PLACEMENT_3D('',#454,#359,#360);
#298=AXIS2_PLACEMENT_3D('',#455,#361,#362);
#299=AXIS2_PLACEMENT_3D('',#456,#363,#364);
#300=AXIS2_PLACEMENT_3D('',#457,#365,#366);
#301=AXIS2_PLACEMENT_3D('',#458,#367,#368);
#302=AXIS2_PLACEMENT_3D('',#462,#370,#371);
#303=AXIS2_PLACEMENT_3D('',#463,#372,#373);
#304=AXIS2_PLACEMENT_3D('',#464,#374,#375);
#305=AXIS2_PLACEMENT_3D('',#466,#376,#377);
#306=AXIS2_PLACEMENT_3D('',#467,#378,#379);
#307=AXIS2_PLACEMENT_3D('',#470,#380,#381);
#308=AXIS2_PLACEMENT_3D('',#471,#382,#383);
#309=AXIS2_PLACEMENT_3D('',#473,#385,#386);
#310=AXIS2_PLACEMENT_3D('',#474,#387,#388);
#311=AXIS2_PLACEMENT_3D('',#475,#389,#390);
#312=AXIS2_PLACEMENT_3D('',#477,#391,#392);
#313=AXIS2_PLACEMENT_3D('',#478,#393,#394);
#314=AXIS2_PLACEMENT_3D('',#481,#396,#397);
#315=AXIS2_PLACEMENT_3D('',#482,#398,#399);
#316=AXIS2_PLACEMENT_3D('',#483,#400,#401);
#317=AXIS2_PLACEMENT_3D('',#484,#402,#403);
#318=AXIS2_PLACEMENT_3D('',#486,#404,#405);
#319=AXIS2_PLACEMENT_3D('',#489,#407,#408);
#320=AXIS2_PLACEMENT_3D('',#490,#409,#410);
#321=AXIS2_PLACEMENT_3D('',#491,#411,#412);
#322=AXIS2_PLACEMENT_3D('',#494,#414,#415);
#323=AXIS2_PLACEMENT_3D('',#495,#416,#417);
#324=AXIS2_PLACEMENT_3D('',#498,#419,#420);
#325=AXIS2_PLACEMENT_3D('',#499,#421,#422);
#326=AXIS2_PLACEMENT_3D('',#500,#423,#424);
#327=DIRECTION('axis',(0.,0.,1.));
#328=DIRECTION('refdir',(1.,0.,0.));
#329=DIRECTION('center_axis',(0.,0.,1.));
#330=DIRECTION('ref_axis',(0.,-1.,0.));
#331=DIRECTION('center_axis',(0.,0.,1.));
#332=DIRECTION('ref_axis',(-4.49024471295491E-48,-1.,1.54275474900217E-17));
#333=DIRECTION('',(1.1968786568462E-16,-0.977325591084316,-0.21174203411626));
#334=DIRECTION('center_axis',(0.,0.,-1.));
#335=DIRECTION('ref_axis',(0.,-1.,0.));
#336=DIRECTION('center_axis',(0.,0.,-1.));
#337=DIRECTION('ref_axis',(0.,-1.,0.));
#338=DIRECTION('center_axis',(0.,0.,1.));
#339=DIRECTION('ref_axis',(0.,-1.,0.));
#340=DIRECTION('center_axis',(2.22044604925031E-16,-6.74075480535537E-33,
-1.));
#341=DIRECTION('ref_axis',(1.,2.73815258661214E-16,2.22044604925031E-16));
#342=DIRECTION('',(1.1968786568462E-16,-0.977325591084316,-0.21174203411626));
#343=DIRECTION('center_axis',(0.,0.,-1.));
#344=DIRECTION('ref_axis',(-4.49024471295491E-48,-1.,1.54275474900217E-17));
#345=DIRECTION('center_axis',(2.22044604925031E-16,-6.74075480535537E-33,
-1.));
#346=DIRECTION('ref_axis',(1.,2.73815258661214E-16,2.22044604925031E-16));
#347=DIRECTION('center_axis',(0.,0.,-1.));
#348=DIRECTION('ref_axis',(-4.49024471295491E-48,-1.,1.54275474900217E-17));
#349=DIRECTION('center_axis',(0.,0.,1.));
#350=DIRECTION('ref_axis',(1.,-4.49024471295491E-48,3.02676386260723E-80));
#351=DIRECTION('center_axis',(0.,0.,1.));
#352=DIRECTION('ref_axis',(1.,-4.49024471295491E-48,3.02676386260723E-80));
#353=DIRECTION('',(9.14676234452943E-17,-0.746889825776523,0.664947808592159));
#354=DIRECTION('center_axis',(0.,0.,1.));
#355=DIRECTION('ref_axis',(-4.49024471295491E-48,-1.,1.54275474900217E-17));
#356=DIRECTION('center_axis',(0.,0.,1.));
#357=DIRECTION('ref_axis',(-4.49024471295491E-48,-1.,1.54275474900217E-17));
#358=DIRECTION('',(-1.97838978082299E-17,0.16154778522268,0.986864891000611));
#359=DIRECTION('center_axis',(0.,0.,1.));
#360=DIRECTION('ref_axis',(1.,-4.49024471295491E-48,3.02676386260723E-80));
#361=DIRECTION('center_axis',(0.,0.,1.));
#362=DIRECTION('ref_axis',(1.,-4.49024471295491E-48,3.02676386260723E-80));
#363=DIRECTION('center_axis',(0.,0.,1.));
#364=DIRECTION('ref_axis',(1.,0.,0.));
#365=DIRECTION('center_axis',(-1.22464679914735E-16,1.,0.));
#366=DIRECTION('ref_axis',(-1.,-1.22464679914735E-16,0.));
#367=DIRECTION('center_axis',(0.,0.,-1.));
#368=DIRECTION('ref_axis',(-4.49024471295491E-48,-1.,1.54275474900217E-17));
#369=DIRECTION('',(-9.14676234452943E-17,0.746889825776523,-0.664947808592159));
#370=DIRECTION('center_axis',(0.,0.,1.));
#371=DIRECTION('ref_axis',(1.,-4.49024471295491E-48,3.02676386260723E-80));
#372=DIRECTION('center_axis',(0.,0.,1.));
#373=DIRECTION('ref_axis',(1.,-4.49024471295491E-48,3.02676386260723E-80));
#374=DIRECTION('center_axis',(0.,0.,-1.));
#375=DIRECTION('ref_axis',(-1.,4.49024471295491E-48,-3.02676386260723E-80));
#376=DIRECTION('center_axis',(0.,0.,1.));
#377=DIRECTION('ref_axis',(1.,-4.49024471295491E-48,3.02676386260723E-80));
#378=DIRECTION('center_axis',(0.,0.,1.));
#379=DIRECTION('ref_axis',(-4.49024471295491E-48,-1.,1.54275474900217E-17));
#380=DIRECTION('center_axis',(0.,0.,1.));
#381=DIRECTION('ref_axis',(1.,-4.49024471295491E-48,3.02676386260723E-80));
#382=DIRECTION('center_axis',(0.,0.,1.));
#383=DIRECTION('ref_axis',(1.,-4.49024471295491E-48,3.02676386260723E-80));
#384=DIRECTION('',(1.97838978082299E-17,-0.16154778522268,-0.986864891000611));
#385=DIRECTION('center_axis',(0.,0.,1.));
#386=DIRECTION('ref_axis',(1.,0.,0.));
#387=DIRECTION('center_axis',(1.22464679914735E-16,-1.,0.));
#388=DIRECTION('ref_axis',(-1.,-1.22464679914735E-16,0.));
#389=DIRECTION('center_axis',(1.45947178162852E-16,-2.46519032881566E-32,
-1.));
#390=DIRECTION('ref_axis',(-0.942954607552629,0.332921324182255,-1.37621564107966E-16));
#391=DIRECTION('center_axis',(-1.45947178162852E-16,2.46519032881566E-32,
1.));
#392=DIRECTION('ref_axis',(0.94295460755263,-0.332921324182255,1.37621564107966E-16));
#393=DIRECTION('center_axis',(-1.45947178162853E-16,8.93631494195677E-32,
1.));
#394=DIRECTION('ref_axis',(0.94295460755263,-0.332921324182255,1.73804310446411E-16));
#395=DIRECTION('',(-0.928629008256413,0.327863501197776,0.17364817766693));
#396=DIRECTION('center_axis',(-1.45947178162853E-16,8.93631494195677E-32,
1.));
#397=DIRECTION('ref_axis',(0.942954607552629,-0.332921324182255,1.37267928705061E-16));
#398=DIRECTION('center_axis',(-1.45947178162853E-16,8.93631494195677E-32,
1.));
#399=DIRECTION('ref_axis',(0.94295460755263,-0.332921324182255,1.37590174334632E-16));
#400=DIRECTION('center_axis',(-0.332921324182256,-0.942954607552629,-4.85889278146404E-17));
#401=DIRECTION('ref_axis',(-0.94295460755263,0.332921324182255,-1.37590174334632E-16));
#402=DIRECTION('center_axis',(2.44929359829471E-16,2.71425396340455E-48,
-1.));
#403=DIRECTION('ref_axis',(-1.,-1.60287544218911E-33,-2.44929359829471E-16));
#404=DIRECTION('center_axis',(-2.44929359829471E-16,-2.71425396340455E-48,
1.));
#405=DIRECTION('ref_axis',(-1.,-1.60287544218911E-33,-2.44929359829471E-16));
#406=DIRECTION('',(-2.44929359829471E-16,-2.71425396340455E-48,1.));
#407=DIRECTION('center_axis',(2.44929359829471E-16,2.71425396340455E-48,
-1.));
#408=DIRECTION('ref_axis',(1.,1.60287544218911E-33,2.44929359829471E-16));
#409=DIRECTION('center_axis',(-2.44929359829471E-16,-2.71425396340455E-48,
1.));
#410=DIRECTION('ref_axis',(1.,1.60287544218911E-33,2.44929359829471E-16));
#411=DIRECTION('center_axis',(2.22044604925031E-16,-6.74075480535537E-33,
-1.));
#412=DIRECTION('ref_axis',(-1.,-2.73815258661214E-16,-2.22044604925031E-16));
#413=DIRECTION('',(-2.22044604925031E-16,6.74075480535537E-33,1.));
#414=DIRECTION('center_axis',(2.22044604925031E-16,-6.74075480535537E-33,
-1.));
#415=DIRECTION('ref_axis',(1.,2.73815258661214E-16,2.22044604925031E-16));
#416=DIRECTION('center_axis',(2.22044604925031E-16,-6.74075480535537E-33,
-1.));
#417=DIRECTION('ref_axis',(-1.,-2.73815258661214E-16,-2.22044604925031E-16));
#418=DIRECTION('',(-0.746870345992336,-1.13039259114523E-16,0.664969688239463));
#419=DIRECTION('center_axis',(2.22044604925031E-16,-6.74075480535537E-33,
-1.));
#420=DIRECTION('ref_axis',(1.,2.73815258661214E-16,2.22044604925031E-16));
#421=DIRECTION('center_axis',(2.22044604925031E-16,-6.74075480535537E-33,
-1.));
#422=DIRECTION('ref_axis',(-1.,-2.73815258661214E-16,-2.27373675443232E-16));
#423=DIRECTION('center_axis',(1.51350578746479E-16,-1.,4.03473342682921E-32));
#424=DIRECTION('ref_axis',(1.,1.51350578746479E-16,2.1316282072803E-16));
#425=CARTESIAN_POINT('',(0.,0.,0.));
#426=CARTESIAN_POINT('Origin',(0.,0.,-3.68692185293071));
#427=CARTESIAN_POINT('',(-1.41882473385545E-15,34.2072208933774,-3.93866396647307));
#428=CARTESIAN_POINT('Origin',(2.77035162362465E-15,3.21925385546149E-16,
-3.93866396647307));
#429=CARTESIAN_POINT('',(1.50044857220676E-15,32.1261332515685,-4.38954106871074));
#430=CARTESIAN_POINT('',(-4.33147439668888E-15,35.3691725622818,-3.68692185293071));
#431=CARTESIAN_POINT('',(-30.2934853724163,10.6954748229678,-4.38954106871074));
#432=CARTESIAN_POINT('Origin',(-2.43386805334472E-15,1.71267856595726E-16,
-4.38954106871074));
#433=CARTESIAN_POINT('Origin',(-2.43386805334472E-15,1.71267856595726E-16,
-4.38954106871074));
#434=CARTESIAN_POINT('Origin',(0.,0.,-3.68692185293071));
#435=CARTESIAN_POINT('',(38.6273855912471,7.56902632911621E-15,-2.98101518208236));
#436=CARTESIAN_POINT('',(-4.73049041237514E-15,38.6273855912471,-2.98101518208236));
#437=CARTESIAN_POINT('Origin',(1.39176784639047E-14,1.72274916441756E-15,
-2.98101518208237));
#438=CARTESIAN_POINT('',(7.47796603632762E-15,38.4405888782022,-3.02148553950183));
#439=CARTESIAN_POINT('',(-4.33147439668888E-15,35.3691725622818,-3.68692185293071));
#440=CARTESIAN_POINT('Origin',(2.77035162362465E-15,3.21925385546165E-16,
-3.02148553950182));
#441=CARTESIAN_POINT('Origin',(1.39176784639047E-14,1.72274916441756E-15,
-2.98101518208237));
#442=CARTESIAN_POINT('Origin',(2.77035162362465E-15,3.21925385546149E-16,
-57.0490065631388));
#443=CARTESIAN_POINT('',(-158.052099015353,-1.90338743302211E-14,-114.19639873606));
#444=CARTESIAN_POINT('',(-1.65854480921426E-14,158.052099015353,-114.19639873606));
#445=CARTESIAN_POINT('Origin',(2.77035162362465E-15,3.21925385546149E-16,
-114.19639873606));
#446=CARTESIAN_POINT('Origin',(2.77035162362465E-15,3.21925385546149E-16,
-114.19639873606));
#447=CARTESIAN_POINT('',(-8.72447602695106E-15,93.8623908426401,-57.0490065631388));
#448=CARTESIAN_POINT('Origin',(2.77035162362465E-15,3.21925385546165E-16,
-153.793222750246));
#449=CARTESIAN_POINT('',(-1.63896657931501E-14,156.45341522237,-177.149368209226));
#450=CARTESIAN_POINT('Origin',(2.77035162362465E-15,3.21925385546165E-16,
-177.149368209226));
#451=CARTESIAN_POINT('',(-1.7314782332583E-14,164.007565039909,-131.002494539545));
#452=CARTESIAN_POINT('',(-1.68578915849159E-14,160.276768960704,-153.793222750246));
#453=CARTESIAN_POINT('',(-164.007565039909,-1.97632085706614E-14,-131.002494539545));
#454=CARTESIAN_POINT('Origin',(2.77035162362465E-15,3.21925385546165E-16,
-131.002494539545));
#455=CARTESIAN_POINT('Origin',(2.77035162362465E-15,3.21925385546165E-16,
-131.002494539545));
#456=CARTESIAN_POINT('Origin',(2.77035162362465E-15,3.21925385546165E-16,
-128.013860512925));
#457=CARTESIAN_POINT('Origin',(-145.750564556398,-1.75273708502451E-14,
-128.013860512925));
#458=CARTESIAN_POINT('Origin',(2.77035162362465E-15,3.21925385546165E-16,
-54.434892172921));
#459=CARTESIAN_POINT('',(-1.68704622640299E-14,160.379416345425,-111.582284345842));
#460=CARTESIAN_POINT('',(-9.00949019883841E-15,96.1897081727127,-54.434892172921));
#461=CARTESIAN_POINT('',(-160.379416345425,-1.93188885021084E-14,-111.582284345842));
#462=CARTESIAN_POINT('Origin',(2.77035162362465E-15,3.21925385546165E-16,
-111.582284345842));
#463=CARTESIAN_POINT('Origin',(2.77035162362465E-15,3.21925385546165E-16,
-111.582284345842));
#464=CARTESIAN_POINT('Origin',(2.77035162362465E-15,-160.,-177.149368209226));
#465=CARTESIAN_POINT('',(-1.6823997162733E-14,160.,-177.149368209226));
#466=CARTESIAN_POINT('Origin',(2.77035162362465E-15,3.21925385546165E-16,
-177.149368209226));
#467=CARTESIAN_POINT('Origin',(2.77035162362465E-15,3.21925385546165E-16,
-154.358639998525));
#468=CARTESIAN_POINT('',(-167.461592158411,-2.01862048961456E-14,-131.567911787824));
#469=CARTESIAN_POINT('',(-1.77377786580671E-14,167.461592158411,-131.567911787824));
#470=CARTESIAN_POINT('Origin',(2.77035162362465E-15,3.21925385546165E-16,
-131.567911787824));
#471=CARTESIAN_POINT('Origin',(2.77035162362465E-15,3.21925385546165E-16,
-131.567911787824));
#472=CARTESIAN_POINT('',(-1.72808879104001E-14,163.730796079206,-154.358639998525));
#473=CARTESIAN_POINT('Origin',(2.77035162362465E-15,3.21925385546165E-16,
-128.013860512925));
#474=CARTESIAN_POINT('Origin',(-145.750564556398,-1.75273708502451E-14,
-128.013860512925));
#475=CARTESIAN_POINT('Origin',(-17.4446602397236,6.15904449737172,-6.08749999999999));
#476=CARTESIAN_POINT('',(-21.2164786699342,7.49072979410075,-6.08749999999999));
#477=CARTESIAN_POINT('Origin',(-2.15778955096019E-15,1.71267856595726E-16,
-6.08749999999999));
#478=CARTESIAN_POINT('Origin',(-2.28646167730207E-15,1.71267856595725E-16,
-5.20586509645766));
#479=CARTESIAN_POINT('',(-30.2791772448768,10.6904231685945,-4.39282852377907));
#480=CARTESIAN_POINT('',(-25.9312517076973,9.15533641501203,-5.20586509645767));
#481=CARTESIAN_POINT('Origin',(-2.40512207082771E-15,1.71267856595726E-16,
-4.39282852377906));
#482=CARTESIAN_POINT('Origin',(-2.43386805334472E-15,1.71267856595726E-16,
-4.19586697317662));
#483=CARTESIAN_POINT('Origin',(-30.2464287750319,10.6788609323444,-4.19586697317662));
#484=CARTESIAN_POINT('Origin',(-5.72567902646145E-15,3.82398483272467E-15,
141.7125));
#485=CARTESIAN_POINT('',(5.00000000000002,3.21166143315099E-15,55.2124999999998));
#486=CARTESIAN_POINT('Origin',(1.54607105987878E-14,3.82398483272467E-15,
55.2124999999998));
#487=CARTESIAN_POINT('',(4.99999999999998,3.21166143315099E-15,229.2125));
#488=CARTESIAN_POINT('',(5.,3.21166143315099E-15,141.7125));
#489=CARTESIAN_POINT('Origin',(-2.71569980115401E-14,3.82398483272467E-15,
229.2125));
#490=CARTESIAN_POINT('Origin',(-5.00000000000003,3.82398483272467E-15,229.2125));
#491=CARTESIAN_POINT('Origin',(1.37690284297211E-14,1.72274916441756E-15,
-2.31155494352426));
#492=CARTESIAN_POINT('',(38.6273855912471,7.56902632911621E-15,-1.64209470496615));
#493=CARTESIAN_POINT('',(38.6273855912471,7.56902632911621E-15,-2.31155494352425));
#494=CARTESIAN_POINT('Origin',(1.36203783955374E-14,1.72274916441756E-15,
-1.64209470496615));
#495=CARTESIAN_POINT('Origin',(1.22834063130016E-14,1.72274916441756E-15,
4.37909226774681));
#496=CARTESIAN_POINT('',(25.1018187056322,5.52192395310418E-15,10.4002792404598));
#497=CARTESIAN_POINT('',(31.8646021484397,6.54547514111019E-15,4.37909226774682));
#498=CARTESIAN_POINT('Origin',(1.09464342304658E-14,1.72274916441756E-15,
10.4002792404598));
#499=CARTESIAN_POINT('Origin',(9.96122376100461E-16,1.72274916441756E-15,
55.2124999999999));
#500=CARTESIAN_POINT('Origin',(65.,1.15605367829387E-14,55.2124999999999));
#501=UNCERTAINTY_MEASURE_WITH_UNIT(LENGTH_MEASURE(0.01),#505,
'DISTANCE_ACCURACY_VALUE',
'Maximum model space distance between geometric entities at asserted c
onnectivities');
#502=UNCERTAINTY_MEASURE_WITH_UNIT(LENGTH_MEASURE(0.01),#505,
'DISTANCE_ACCURACY_VALUE',
'Maximum model space distance between geometric entities at asserted c
onnectivities');
#503=(
GEOMETRIC_REPRESENTATION_CONTEXT(3)
GLOBAL_UNCERTAINTY_ASSIGNED_CONTEXT((#501))
GLOBAL_UNIT_ASSIGNED_CONTEXT((#505,#507,#508))
REPRESENTATION_CONTEXT('','3D')
);
#504=(
GEOMETRIC_REPRESENTATION_CONTEXT(3)
GLOBAL_UNCERTAINTY_ASSIGNED_CONTEXT((#502))
GLOBAL_UNIT_ASSIGNED_CONTEXT((#505,#507,#508))
REPRESENTATION_CONTEXT('','3D')
);
#505=(
LENGTH_UNIT()
NAMED_UNIT(*)
SI_UNIT(.MILLI.,.METRE.)
);
#506=(
LENGTH_UNIT()
NAMED_UNIT(*)
SI_UNIT(.CENTI.,.METRE.)
);
#507=(
NAMED_UNIT(*)
PLANE_ANGLE_UNIT()
SI_UNIT($,.RADIAN.)
);
#508=(
NAMED_UNIT(*)
SI_UNIT($,.STERADIAN.)
SOLID_ANGLE_UNIT()
);
#509=SHAPE_DEFINITION_REPRESENTATION(#510,#511);
#510=PRODUCT_DEFINITION_SHAPE('',$,#513);
#511=SHAPE_REPRESENTATION('',(#283),#503);
#512=PRODUCT_DEFINITION_CONTEXT('part definition',#517,'design');
#513=PRODUCT_DEFINITION('ENG000025995','ENG000025995',#514,#512);
#514=PRODUCT_DEFINITION_FORMATION('00',$,#519);
#515=PRODUCT_RELATED_PRODUCT_CATEGORY('ENG000025995','ENG000025995',(#519));
#516=APPLICATION_PROTOCOL_DEFINITION('international standard',
'automotive_design',2009,#517);
#517=APPLICATION_CONTEXT(
'Core Data for Automotive Mechanical Design Process');
#518=PRODUCT_CONTEXT('part definition',#517,'mechanical');
#519=PRODUCT('ENG000025995','ENG000025995','SIMPLE',(#518));
#520=PRESENTATION_STYLE_ASSIGNMENT((#521));
#521=SURFACE_STYLE_USAGE(.BOTH.,#524);
#522=SURFACE_STYLE_RENDERING_WITH_PROPERTIES($,#528,(#523));
#523=SURFACE_STYLE_TRANSPARENT(0.);
#524=SURFACE_SIDE_STYLE('',(#525,#522));
#525=SURFACE_STYLE_FILL_AREA(#526);
#526=FILL_AREA_STYLE('',(#527));
#527=FILL_AREA_STYLE_COLOUR('',#528);
#528=COLOUR_RGB('',1.,1.,1.);
ENDSEC;
END-ISO-10303-21;
