ISO-10303-21;
HEADER;
/* Generated by software containing ST-Developer
 * from STEP Tools, Inc. (www.steptools.com) 
 */

FILE_DESCRIPTION(
/* description */ ('This is a sample STEP configuration'),
/* implementation_level */ '2;1');

FILE_NAME(
/* name */ '114-0111xxxxxxxxx SIMPLE.ipt_Rev_00.1.stp',
/* time_stamp */ '2023-04-26T12:48:54+02:00',
/* author */ ('powerJobs'),
/* organization */ ('coolOrange'),
/* preprocessor_version */ 'ST-DEVELOPER v19.2',
/* originating_system */ 'Autodesk Inventor 2023',
/* authorisation */ '');

FILE_SCHEMA (('AUTOMOTIVE_DESIGN { 1 0 10303 214 3 1 1 }'));
ENDSEC;

DATA;
#10=MECHANICAL_DESIGN_GEOMETRIC_PRESENTATION_REPRESENTATION('',(#13),#467);
#11=SHAPE_REPRESENTATION_RELATIONSHIP('SRR','None',#474,#12);
#12=ADVANCED_BREP_SHAPE_REPRESENTATION('',(#242),#466);
#13=STYLED_ITEM('',(#483),#242);
#14=ORIENTED_CLOSED_SHELL('',*,#241,.F.);
#15=FACE_BOUND('',#55,.T.);
#16=PLANE('',#299);
#17=CYLINDRICAL_SURFACE('',#284,33.75);
#18=CYLINDRICAL_SURFACE('',#296,32.55);
#19=TOROIDAL_SURFACE('',#276,35.75,2.);
#20=TOROIDAL_SURFACE('',#279,35.75,2.);
#21=TOROIDAL_SURFACE('',#281,35.75,2.);
#22=TOROIDAL_SURFACE('',#290,35.75,0.8);
#23=TOROIDAL_SURFACE('',#293,35.75,3.2);
#24=TOROIDAL_SURFACE('',#300,35.75,2.);
#25=FACE_OUTER_BOUND('',#41,.T.);
#26=FACE_OUTER_BOUND('',#42,.T.);
#27=FACE_OUTER_BOUND('',#43,.T.);
#28=FACE_OUTER_BOUND('',#44,.T.);
#29=FACE_OUTER_BOUND('',#45,.T.);
#30=FACE_OUTER_BOUND('',#46,.T.);
#31=FACE_OUTER_BOUND('',#47,.T.);
#32=FACE_OUTER_BOUND('',#48,.T.);
#33=FACE_OUTER_BOUND('',#49,.T.);
#34=FACE_OUTER_BOUND('',#50,.T.);
#35=FACE_OUTER_BOUND('',#51,.T.);
#36=FACE_OUTER_BOUND('',#52,.T.);
#37=FACE_OUTER_BOUND('',#53,.T.);
#38=FACE_OUTER_BOUND('',#54,.T.);
#39=FACE_OUTER_BOUND('',#56,.T.);
#40=FACE_OUTER_BOUND('',#57,.T.);
#41=EDGE_LOOP('',(#151,#152,#153,#154));
#42=EDGE_LOOP('',(#155,#156,#157,#158));
#43=EDGE_LOOP('',(#159,#160,#161,#162));
#44=EDGE_LOOP('',(#163,#164,#165,#166,#167));
#45=EDGE_LOOP('',(#168,#169,#170,#171));
#46=EDGE_LOOP('',(#172,#173,#174,#175));
#47=EDGE_LOOP('',(#176,#177,#178,#179));
#48=EDGE_LOOP('',(#180,#181,#182,#183));
#49=EDGE_LOOP('',(#184,#185,#186,#187,#188));
#50=EDGE_LOOP('',(#189,#190,#191,#192));
#51=EDGE_LOOP('',(#193,#194,#195,#196));
#52=EDGE_LOOP('',(#197,#198,#199,#200));
#53=EDGE_LOOP('',(#201,#202,#203,#204,#205,#206));
#54=EDGE_LOOP('',(#207));
#55=EDGE_LOOP('',(#208));
#56=EDGE_LOOP('',(#209,#210,#211,#212));
#57=EDGE_LOOP('',(#213,#214,#215,#216));
#58=LINE('',#401,#67);
#59=LINE('',#407,#68);
#60=LINE('',#410,#69);
#61=LINE('',#415,#70);
#62=LINE('',#432,#71);
#63=LINE('',#438,#72);
#64=LINE('',#451,#73);
#65=LINE('',#454,#74);
#66=LINE('',#463,#75);
#67=VECTOR('',#311,57.8443738927891);
#68=VECTOR('',#318,56.3954851533555);
#69=VECTOR('',#323,79.3313405027169);
#70=VECTOR('',#328,121.51503807491);
#71=VECTOR('',#353,33.75);
#72=VECTOR('',#358,121.51503807491);
#73=VECTOR('',#377,33.75);
#74=VECTOR('',#382,206.25);
#75=VECTOR('',#395,34.9085185434277);
#76=CIRCLE('',#266,35.6338671232822);
#77=CIRCLE('',#267,80.0557848724337);
#78=CIRCLE('',#269,34.2588213026955);
#79=CIRCLE('',#270,78.6068961330001);
#80=CIRCLE('',#273,36.7800761498201);
#81=CIRCLE('',#274,206.25);
#82=CIRCLE('',#275,206.25);
#83=CIRCLE('',#277,35.75);
#84=CIRCLE('',#278,2.);
#85=CIRCLE('',#280,2.);
#86=CIRCLE('',#282,2.);
#87=CIRCLE('',#283,33.75);
#88=CIRCLE('',#285,33.75);
#89=CIRCLE('',#287,205.631954310108);
#90=CIRCLE('',#288,36.1620304599281);
#91=CIRCLE('',#289,205.631954310108);
#92=CIRCLE('',#291,0.8);
#93=CIRCLE('',#292,35.75);
#94=CIRCLE('',#294,32.55);
#95=CIRCLE('',#295,3.2);
#96=CIRCLE('',#297,32.55);
#97=CIRCLE('',#301,35.6162546507461);
#98=CIRCLE('',#302,2.);
#99=CIRCLE('',#303,34.8680653528002);
#100=VERTEX_POINT('',#398);
#101=VERTEX_POINT('',#400);
#102=VERTEX_POINT('',#404);
#103=VERTEX_POINT('',#406);
#104=VERTEX_POINT('',#412);
#105=VERTEX_POINT('',#414);
#106=VERTEX_POINT('',#416);
#107=VERTEX_POINT('',#420);
#108=VERTEX_POINT('',#426);
#109=VERTEX_POINT('',#430);
#110=VERTEX_POINT('',#434);
#111=VERTEX_POINT('',#435);
#112=VERTEX_POINT('',#437);
#113=VERTEX_POINT('',#442);
#114=VERTEX_POINT('',#446);
#115=VERTEX_POINT('',#450);
#116=VERTEX_POINT('',#457);
#117=VERTEX_POINT('',#459);
#118=EDGE_CURVE('',#100,#100,#76,.T.);
#119=EDGE_CURVE('',#100,#101,#58,.T.);
#120=EDGE_CURVE('',#101,#101,#77,.T.);
#121=EDGE_CURVE('',#102,#102,#78,.T.);
#122=EDGE_CURVE('',#102,#103,#59,.T.);
#123=EDGE_CURVE('',#103,#103,#79,.T.);
#124=EDGE_CURVE('',#101,#103,#60,.T.);
#125=EDGE_CURVE('',#104,#104,#80,.T.);
#126=EDGE_CURVE('',#104,#105,#61,.T.);
#127=EDGE_CURVE('',#106,#105,#81,.T.);
#128=EDGE_CURVE('',#105,#106,#82,.T.);
#129=EDGE_CURVE('',#107,#107,#83,.T.);
#130=EDGE_CURVE('',#107,#104,#84,.T.);
#131=EDGE_CURVE('',#107,#100,#85,.T.);
#132=EDGE_CURVE('',#102,#108,#86,.T.);
#133=EDGE_CURVE('',#108,#108,#87,.T.);
#134=EDGE_CURVE('',#109,#109,#88,.T.);
#135=EDGE_CURVE('',#109,#108,#62,.T.);
#136=EDGE_CURVE('',#110,#111,#89,.T.);
#137=EDGE_CURVE('',#111,#112,#63,.T.);
#138=EDGE_CURVE('',#112,#112,#90,.T.);
#139=EDGE_CURVE('',#111,#110,#91,.T.);
#140=EDGE_CURVE('',#112,#113,#92,.T.);
#141=EDGE_CURVE('',#113,#113,#93,.T.);
#142=EDGE_CURVE('',#114,#114,#94,.T.);
#143=EDGE_CURVE('',#114,#113,#95,.T.);
#144=EDGE_CURVE('',#114,#115,#64,.T.);
#145=EDGE_CURVE('',#115,#115,#96,.T.);
#146=EDGE_CURVE('',#110,#106,#65,.T.);
#147=EDGE_CURVE('',#116,#116,#97,.T.);
#148=EDGE_CURVE('',#116,#117,#98,.T.);
#149=EDGE_CURVE('',#117,#117,#99,.T.);
#150=EDGE_CURVE('',#116,#117,#66,.T.);
#151=ORIENTED_EDGE('',*,*,#118,.F.);
#152=ORIENTED_EDGE('',*,*,#119,.T.);
#153=ORIENTED_EDGE('',*,*,#120,.T.);
#154=ORIENTED_EDGE('',*,*,#119,.F.);
#155=ORIENTED_EDGE('',*,*,#121,.F.);
#156=ORIENTED_EDGE('',*,*,#122,.T.);
#157=ORIENTED_EDGE('',*,*,#123,.F.);
#158=ORIENTED_EDGE('',*,*,#122,.F.);
#159=ORIENTED_EDGE('',*,*,#120,.F.);
#160=ORIENTED_EDGE('',*,*,#124,.T.);
#161=ORIENTED_EDGE('',*,*,#123,.T.);
#162=ORIENTED_EDGE('',*,*,#124,.F.);
#163=ORIENTED_EDGE('',*,*,#125,.T.);
#164=ORIENTED_EDGE('',*,*,#126,.T.);
#165=ORIENTED_EDGE('',*,*,#127,.F.);
#166=ORIENTED_EDGE('',*,*,#128,.F.);
#167=ORIENTED_EDGE('',*,*,#126,.F.);
#168=ORIENTED_EDGE('',*,*,#129,.T.);
#169=ORIENTED_EDGE('',*,*,#130,.T.);
#170=ORIENTED_EDGE('',*,*,#125,.F.);
#171=ORIENTED_EDGE('',*,*,#130,.F.);
#172=ORIENTED_EDGE('',*,*,#129,.F.);
#173=ORIENTED_EDGE('',*,*,#131,.T.);
#174=ORIENTED_EDGE('',*,*,#118,.T.);
#175=ORIENTED_EDGE('',*,*,#131,.F.);
#176=ORIENTED_EDGE('',*,*,#121,.T.);
#177=ORIENTED_EDGE('',*,*,#132,.T.);
#178=ORIENTED_EDGE('',*,*,#133,.T.);
#179=ORIENTED_EDGE('',*,*,#132,.F.);
#180=ORIENTED_EDGE('',*,*,#134,.T.);
#181=ORIENTED_EDGE('',*,*,#135,.T.);
#182=ORIENTED_EDGE('',*,*,#133,.F.);
#183=ORIENTED_EDGE('',*,*,#135,.F.);
#184=ORIENTED_EDGE('',*,*,#136,.T.);
#185=ORIENTED_EDGE('',*,*,#137,.T.);
#186=ORIENTED_EDGE('',*,*,#138,.F.);
#187=ORIENTED_EDGE('',*,*,#137,.F.);
#188=ORIENTED_EDGE('',*,*,#139,.T.);
#189=ORIENTED_EDGE('',*,*,#138,.T.);
#190=ORIENTED_EDGE('',*,*,#140,.T.);
#191=ORIENTED_EDGE('',*,*,#141,.F.);
#192=ORIENTED_EDGE('',*,*,#140,.F.);
#193=ORIENTED_EDGE('',*,*,#142,.F.);
#194=ORIENTED_EDGE('',*,*,#143,.T.);
#195=ORIENTED_EDGE('',*,*,#141,.T.);
#196=ORIENTED_EDGE('',*,*,#143,.F.);
#197=ORIENTED_EDGE('',*,*,#142,.T.);
#198=ORIENTED_EDGE('',*,*,#144,.T.);
#199=ORIENTED_EDGE('',*,*,#145,.F.);
#200=ORIENTED_EDGE('',*,*,#144,.F.);
#201=ORIENTED_EDGE('',*,*,#136,.F.);
#202=ORIENTED_EDGE('',*,*,#146,.T.);
#203=ORIENTED_EDGE('',*,*,#127,.T.);
#204=ORIENTED_EDGE('',*,*,#128,.T.);
#205=ORIENTED_EDGE('',*,*,#146,.F.);
#206=ORIENTED_EDGE('',*,*,#139,.F.);
#207=ORIENTED_EDGE('',*,*,#134,.F.);
#208=ORIENTED_EDGE('',*,*,#145,.T.);
#209=ORIENTED_EDGE('',*,*,#147,.T.);
#210=ORIENTED_EDGE('',*,*,#148,.T.);
#211=ORIENTED_EDGE('',*,*,#149,.T.);
#212=ORIENTED_EDGE('',*,*,#148,.F.);
#213=ORIENTED_EDGE('',*,*,#147,.F.);
#214=ORIENTED_EDGE('',*,*,#150,.T.);
#215=ORIENTED_EDGE('',*,*,#149,.F.);
#216=ORIENTED_EDGE('',*,*,#150,.F.);
#217=CONICAL_SURFACE('',#265,57.8443738927891,0.261799387799149);
#218=CONICAL_SURFACE('',#268,56.3954851533555,0.261799387799149);
#219=CONICAL_SURFACE('',#271,79.3313405027169,1.30899693899573);
#220=CONICAL_SURFACE('',#272,121.51503807491,1.02974425867665);
#221=CONICAL_SURFACE('',#286,120.896992385018,1.02974425867665);
#222=CONICAL_SURFACE('',#298,206.25,0.541052068118242);
#223=CONICAL_SURFACE('',#304,34.9085185434277,1.30899693899575);
#224=ADVANCED_FACE('',(#25),#217,.T.);
#225=ADVANCED_FACE('',(#26),#218,.F.);
#226=ADVANCED_FACE('',(#27),#219,.T.);
#227=ADVANCED_FACE('',(#28),#220,.T.);
#228=ADVANCED_FACE('',(#29),#19,.T.);
#229=ADVANCED_FACE('',(#30),#20,.F.);
#230=ADVANCED_FACE('',(#31),#21,.F.);
#231=ADVANCED_FACE('',(#32),#17,.T.);
#232=ADVANCED_FACE('',(#33),#221,.F.);
#233=ADVANCED_FACE('',(#34),#22,.F.);
#234=ADVANCED_FACE('',(#35),#23,.T.);
#235=ADVANCED_FACE('',(#36),#18,.F.);
#236=ADVANCED_FACE('',(#37),#222,.T.);
#237=ADVANCED_FACE('',(#38,#15),#16,.F.);
#238=ADVANCED_FACE('',(#39),#24,.F.);
#239=ADVANCED_FACE('',(#40),#223,.F.);
#240=CLOSED_SHELL('',(#224,#225,#226,#227,#228,#229,#230,#231,#232,#233,
#234,#235,#236,#237));
#241=CLOSED_SHELL('',(#238,#239));
#242=BREP_WITH_VOIDS('Volumenk\X\F6rper1',#240,(#14));
#243=DERIVED_UNIT_ELEMENT(#246,1.);
#244=DERIVED_UNIT_ELEMENT(#469,-3.);
#245=DIMENSIONAL_EXPONENTS(0.,1.,0.,0.,0.,0.,0.);
#246=(
CONVERSION_BASED_UNIT('gram',#248)
MASS_UNIT()
NAMED_UNIT(#245)
);
#247=(
MASS_UNIT()
NAMED_UNIT(*)
SI_UNIT(.KILO.,.GRAM.)
);
#248=MASS_MEASURE_WITH_UNIT(MASS_MEASURE(0.001),#247);
#249=DERIVED_UNIT((#243,#244));
#250=MEASURE_REPRESENTATION_ITEM('density measure',
POSITIVE_RATIO_MEASURE(0.),#249);
#251=PROPERTY_DEFINITION_REPRESENTATION(#256,#253);
#252=PROPERTY_DEFINITION_REPRESENTATION(#257,#254);
#253=REPRESENTATION('material name',(#255),#466);
#254=REPRESENTATION('density',(#250),#466);
#255=DESCRIPTIVE_REPRESENTATION_ITEM('ACC.TECHN. INFO',
'ACC.TECHN. INFO');
#256=PROPERTY_DEFINITION('material property','material name',#476);
#257=PROPERTY_DEFINITION('material property','density of part',#476);
#258=DATE_TIME_ROLE('creation_date');
#259=APPLIED_DATE_AND_TIME_ASSIGNMENT(#260,#258,(#476));
#260=DATE_AND_TIME(#261,#262);
#261=CALENDAR_DATE(2022,6,5);
#262=LOCAL_TIME(0,0,0.,#263);
#263=COORDINATED_UNIVERSAL_TIME_OFFSET(0,0,.BEHIND.);
#264=AXIS2_PLACEMENT_3D('placement',#396,#305,#306);
#265=AXIS2_PLACEMENT_3D('',#397,#307,#308);
#266=AXIS2_PLACEMENT_3D('',#399,#309,#310);
#267=AXIS2_PLACEMENT_3D('',#402,#312,#313);
#268=AXIS2_PLACEMENT_3D('',#403,#314,#315);
#269=AXIS2_PLACEMENT_3D('',#405,#316,#317);
#270=AXIS2_PLACEMENT_3D('',#408,#319,#320);
#271=AXIS2_PLACEMENT_3D('',#409,#321,#322);
#272=AXIS2_PLACEMENT_3D('',#411,#324,#325);
#273=AXIS2_PLACEMENT_3D('',#413,#326,#327);
#274=AXIS2_PLACEMENT_3D('',#417,#329,#330);
#275=AXIS2_PLACEMENT_3D('',#418,#331,#332);
#276=AXIS2_PLACEMENT_3D('',#419,#333,#334);
#277=AXIS2_PLACEMENT_3D('',#421,#335,#336);
#278=AXIS2_PLACEMENT_3D('',#422,#337,#338);
#279=AXIS2_PLACEMENT_3D('',#423,#339,#340);
#280=AXIS2_PLACEMENT_3D('',#424,#341,#342);
#281=AXIS2_PLACEMENT_3D('',#425,#343,#344);
#282=AXIS2_PLACEMENT_3D('',#427,#345,#346);
#283=AXIS2_PLACEMENT_3D('',#428,#347,#348);
#284=AXIS2_PLACEMENT_3D('',#429,#349,#350);
#285=AXIS2_PLACEMENT_3D('',#431,#351,#352);
#286=AXIS2_PLACEMENT_3D('',#433,#354,#355);
#287=AXIS2_PLACEMENT_3D('',#436,#356,#357);
#288=AXIS2_PLACEMENT_3D('',#439,#359,#360);
#289=AXIS2_PLACEMENT_3D('',#440,#361,#362);
#290=AXIS2_PLACEMENT_3D('',#441,#363,#364);
#291=AXIS2_PLACEMENT_3D('',#443,#365,#366);
#292=AXIS2_PLACEMENT_3D('',#444,#367,#368);
#293=AXIS2_PLACEMENT_3D('',#445,#369,#370);
#294=AXIS2_PLACEMENT_3D('',#447,#371,#372);
#295=AXIS2_PLACEMENT_3D('',#448,#373,#374);
#296=AXIS2_PLACEMENT_3D('',#449,#375,#376);
#297=AXIS2_PLACEMENT_3D('',#452,#378,#379);
#298=AXIS2_PLACEMENT_3D('',#453,#380,#381);
#299=AXIS2_PLACEMENT_3D('',#455,#383,#384);
#300=AXIS2_PLACEMENT_3D('',#456,#385,#386);
#301=AXIS2_PLACEMENT_3D('',#458,#387,#388);
#302=AXIS2_PLACEMENT_3D('',#460,#389,#390);
#303=AXIS2_PLACEMENT_3D('',#461,#391,#392);
#304=AXIS2_PLACEMENT_3D('',#462,#393,#394);
#305=DIRECTION('axis',(0.,0.,1.));
#306=DIRECTION('refdir',(1.,0.,0.));
#307=DIRECTION('center_axis',(5.23277451011568E-16,3.3681920375634E-16,
1.));
#308=DIRECTION('ref_axis',(-0.973338164533877,-0.229374840516181,5.88050515087605E-16));
#309=DIRECTION('center_axis',(-5.23277451011568E-16,-3.3681920375634E-16,
-1.));
#310=DIRECTION('ref_axis',(-0.973338164533877,-0.229374840516181,5.88050515087605E-16));
#311=DIRECTION('',(0.251918454306498,0.0593665771929411,0.965925826289068));
#312=DIRECTION('center_axis',(-5.23277451011568E-16,-3.3681920375634E-16,
-1.));
#313=DIRECTION('ref_axis',(0.973338164533877,0.229374840516181,-5.86583764853963E-16));
#314=DIRECTION('center_axis',(5.23277451011568E-16,3.3681920375634E-16,
1.));
#315=DIRECTION('ref_axis',(-0.973338164533877,-0.229374840516181,5.88050515087605E-16));
#316=DIRECTION('center_axis',(5.23277451011568E-16,3.3681920375634E-16,
1.));
#317=DIRECTION('ref_axis',(-0.973338164533877,-0.229374840516181,5.88050515087605E-16));
#318=DIRECTION('',(0.251918454306498,0.0593665771929412,0.965925826289068));
#319=DIRECTION('center_axis',(-5.23277451011568E-16,-3.3681920375634E-16,
-1.));
#320=DIRECTION('ref_axis',(0.973338164533877,0.229374840516181,-5.86583764853963E-16));
#321=DIRECTION('center_axis',(-5.23277451011568E-16,-3.3681920375634E-16,
-1.));
#322=DIRECTION('ref_axis',(-0.973338164533877,-0.229374840516181,5.88050515087605E-16));
#323=DIRECTION('',(-0.940172470836065,-0.221559082355514,0.258819045102542));
#324=DIRECTION('center_axis',(1.63967073665488E-16,-1.7486459333694E-16,
-1.));
#325=DIRECTION('ref_axis',(-0.973338164533877,-0.229374840516181,2.97880759776555E-18));
#326=DIRECTION('center_axis',(1.63967073665488E-16,-1.7486459333694E-16,
-1.));
#327=DIRECTION('ref_axis',(0.973338164533877,0.229374840516181,1.1948587231697E-16));
#328=DIRECTION('',(0.834313647163852,0.196612612894232,-0.515038074910054));
#329=DIRECTION('center_axis',(1.63967073665488E-16,-1.7486459333694E-16,
-1.));
#330=DIRECTION('ref_axis',(0.973338164533877,0.229374840516181,1.1948587231697E-16));
#331=DIRECTION('center_axis',(1.63967073665488E-16,-1.7486459333694E-16,
-1.));
#332=DIRECTION('ref_axis',(0.973338164533877,0.229374840516181,1.1948587231697E-16));
#333=DIRECTION('center_axis',(1.63967073665488E-16,-1.7486459333694E-16,
-1.));
#334=DIRECTION('ref_axis',(-0.973338164533877,-0.229374840516181,-1.88223241260954E-16));
#335=DIRECTION('center_axis',(1.63967073665488E-16,-1.7486459333694E-16,
-1.));
#336=DIRECTION('ref_axis',(0.973338164533877,0.229374840516181,1.1948587231697E-16));
#337=DIRECTION('center_axis',(-0.229374840516181,0.973338164533877,-2.07812303692466E-16));
#338=DIRECTION('ref_axis',(0.973338164533877,0.229374840516181,1.17639525788096E-16));
#339=DIRECTION('center_axis',(1.63967073665488E-16,-1.7486459333694E-16,
-1.));
#340=DIRECTION('ref_axis',(-0.973338164533877,-0.229374840516181,-1.88223241260954E-16));
#341=DIRECTION('center_axis',(-0.229374840516181,0.973338164533877,-2.07812303692466E-16));
#342=DIRECTION('ref_axis',(0.973338164533877,0.229374840516181,1.17639525788096E-16));
#343=DIRECTION('center_axis',(1.63967073665488E-16,-1.7486459333694E-16,
-1.));
#344=DIRECTION('ref_axis',(-0.973338164533877,-0.229374840516181,-1.88223241260954E-16));
#345=DIRECTION('center_axis',(-0.229374840516181,0.973338164533877,-2.07812303692466E-16));
#346=DIRECTION('ref_axis',(0.973338164533877,0.229374840516181,1.17639525788096E-16));
#347=DIRECTION('center_axis',(1.63967073665488E-16,-1.7486459333694E-16,
-1.));
#348=DIRECTION('ref_axis',(0.973338164533877,0.229374840516181,1.1948587231697E-16));
#349=DIRECTION('center_axis',(1.63967073665488E-16,-1.7486459333694E-16,
-1.));
#350=DIRECTION('ref_axis',(-0.973338164533877,-0.229374840516181,2.97880759776555E-18));
#351=DIRECTION('center_axis',(1.63967073665488E-16,-1.7486459333694E-16,
-1.));
#352=DIRECTION('ref_axis',(0.973338164533877,0.229374840516181,1.1948587231697E-16));
#353=DIRECTION('',(1.63967073665488E-16,-1.7486459333694E-16,-1.));
#354=DIRECTION('center_axis',(1.63967073665488E-16,-1.7486459333694E-16,
-1.));
#355=DIRECTION('ref_axis',(-0.973338164533877,-0.229374840516181,2.97880759776555E-18));
#356=DIRECTION('center_axis',(1.63967073665488E-16,-1.7486459333694E-16,
-1.));
#357=DIRECTION('ref_axis',(0.973338164533877,0.229374840516181,1.1948587231697E-16));
#358=DIRECTION('',(-0.834313647163852,-0.196612612894232,0.515038074910054));
#359=DIRECTION('center_axis',(1.63967073665488E-16,-1.7486459333694E-16,
-1.));
#360=DIRECTION('ref_axis',(0.973338164533877,0.229374840516181,1.1948587231697E-16));
#361=DIRECTION('center_axis',(1.63967073665488E-16,-1.7486459333694E-16,
-1.));
#362=DIRECTION('ref_axis',(0.973338164533877,0.229374840516181,1.1948587231697E-16));
#363=DIRECTION('center_axis',(1.63967073665488E-16,-1.7486459333694E-16,
-1.));
#364=DIRECTION('ref_axis',(-0.973338164533877,-0.229374840516181,-1.94402937280465E-16));
#365=DIRECTION('center_axis',(0.229374840516181,-0.973338164533877,2.07812303692466E-16));
#366=DIRECTION('ref_axis',(0.973338164533877,0.229374840516181,1.21501835800291E-16));
#367=DIRECTION('center_axis',(1.63967073665488E-16,-1.7486459333694E-16,
-1.));
#368=DIRECTION('ref_axis',(0.973338164533877,0.229374840516181,1.1948587231697E-16));
#369=DIRECTION('center_axis',(1.63967073665488E-16,-1.7486459333694E-16,
-1.));
#370=DIRECTION('ref_axis',(-0.973338164533877,-0.229374840516181,-1.82424322403106E-16));
#371=DIRECTION('center_axis',(1.63967073665488E-16,-1.7486459333694E-16,
-1.));
#372=DIRECTION('ref_axis',(0.973338164533877,0.229374840516181,1.1948587231697E-16));
#373=DIRECTION('center_axis',(0.229374840516181,-0.973338164533877,2.07812303692466E-16));
#374=DIRECTION('ref_axis',(0.973338164533877,0.229374840516181,1.14015201501942E-16));
#375=DIRECTION('center_axis',(1.63967073665488E-16,-1.7486459333694E-16,
-1.));
#376=DIRECTION('ref_axis',(-0.973338164533877,-0.229374840516181,2.97880759776555E-18));
#377=DIRECTION('',(-1.63967073665488E-16,1.7486459333694E-16,1.));
#378=DIRECTION('center_axis',(1.63967073665488E-16,-1.7486459333694E-16,
-1.));
#379=DIRECTION('ref_axis',(0.973338164533877,0.229374840516181,1.1948587231697E-16));
#380=DIRECTION('center_axis',(-1.63967073665488E-16,1.7486459333694E-16,
1.));
#381=DIRECTION('ref_axis',(0.973338164533877,0.229374840516181,1.1948587231697E-16));
#382=DIRECTION('',(-0.501306214498014,-0.118136776292254,0.857167300702112));
#383=DIRECTION('center_axis',(1.56832076335322E-16,-1.76546011917166E-16,
-1.));
#384=DIRECTION('ref_axis',(-0.973338164533877,-0.229374840516181,-1.12155431992991E-16));
#385=DIRECTION('center_axis',(1.63967073665488E-16,-1.7486459333694E-16,
-1.));
#386=DIRECTION('ref_axis',(-0.973338164533877,-0.229374840516181,-1.88223241260954E-16));
#387=DIRECTION('center_axis',(5.23277451011568E-16,3.3681920375634E-16,
1.));
#388=DIRECTION('ref_axis',(-0.973338164533877,-0.229374840516181,5.88050515087605E-16));
#389=DIRECTION('center_axis',(-0.229374840516181,0.973338164533877,-2.07812303692466E-16));
#390=DIRECTION('ref_axis',(0.973338164533877,0.229374840516181,1.17639525788096E-16));
#391=DIRECTION('center_axis',(-5.23277451011568E-16,-3.3681920375634E-16,
-1.));
#392=DIRECTION('ref_axis',(-0.973338164533877,-0.229374840516181,5.88050515087605E-16));
#393=DIRECTION('center_axis',(-5.23277451011568E-16,-3.3681920375634E-16,
-1.));
#394=DIRECTION('ref_axis',(-0.973338164533877,-0.229374840516181,5.88050515087605E-16));
#395=DIRECTION('',(-0.940172470836071,-0.221559082355515,0.25881904510252));
#396=CARTESIAN_POINT('',(0.,0.,0.));
#397=CARTESIAN_POINT('Origin',(2.11383161406107E-14,-5.42341872339446E-30,
45.6229661544461));
#398=CARTESIAN_POINT('',(34.6838028210196,8.17351258837762,-37.2677735712065));
#399=CARTESIAN_POINT('Origin',(6.38582769672819E-14,-8.21587811643492E-15,
-37.2677735712064));
#400=CARTESIAN_POINT('',(77.9213507080536,18.3627828875122,128.517080438273));
#401=CARTESIAN_POINT('',(56.3021367134187,13.2680440364168,45.622966154446));
#402=CARTESIAN_POINT('Origin',(6.45149369669133E-14,2.79203295691656E-14,
128.517080438273));
#403=CARTESIAN_POINT('Origin',(2.13414673959024E-14,1.30762837032601E-16,
46.0111947220998));
#404=CARTESIAN_POINT('',(33.3454182458598,7.85811167257812,-36.6039594786367));
#405=CARTESIAN_POINT('Origin',(6.42056359135874E-14,-7.99229278233334E-15,
-36.6039594786367));
#406=CARTESIAN_POINT('',(76.5110920017995,18.0304442639789,128.905309005927));
#407=CARTESIAN_POINT('',(54.8918780071646,12.9357054128836,46.0111947220998));
#408=CARTESIAN_POINT('Origin',(6.4718088222205E-14,2.80510924061983E-14,
128.905309005927));
#409=CARTESIAN_POINT('Origin',(6.46165125945591E-14,2.7985710987682E-14,
128.7111947221));
#410=CARTESIAN_POINT('',(77.2162213549265,18.1966135757455,128.7111947221));
#411=CARTESIAN_POINT('Origin',(7.36260433725298E-14,-1.68460969870477E-14,
-88.470715203563));
#412=CARTESIAN_POINT('',(35.7994518110822,8.43642410103797,-37.5568135279766));
#413=CARTESIAN_POINT('Origin',(6.52778399058915E-14,-7.94305827534934E-15,
-37.5568135279766));
#414=CARTESIAN_POINT('',(200.750996435112,47.3085608564623,-139.384616879149));
#415=CARTESIAN_POINT('',(118.275224123097,27.8724924787501,-88.470715203563));
#416=CARTESIAN_POINT('',(-200.750996435112,-47.3085608564624,-139.384616879149));
#417=CARTESIAN_POINT('Origin',(8.1974246839168E-14,-2.5749135698746E-14,
-139.384616879149));
#418=CARTESIAN_POINT('Origin',(8.1974246839168E-14,-2.5749135698746E-14,
-139.384616879149));
#419=CARTESIAN_POINT('Origin',(6.55589343337672E-14,-8.24283469826733E-15,
-39.2711481293809));
#420=CARTESIAN_POINT('',(34.7968393820862,8.20015054845346,-37.2711481293809));
#421=CARTESIAN_POINT('Origin',(6.52310001864362E-14,-7.89310551159345E-15,
-37.2711481293809));
#422=CARTESIAN_POINT('Origin',(34.7968393820862,8.20015054845346,-39.2711481293808));
#423=CARTESIAN_POINT('Origin',(6.49030660391053E-14,-7.54337632491957E-15,
-35.2711481293808));
#424=CARTESIAN_POINT('Origin',(34.7968393820862,8.20015054845346,-35.2711481293808));
#425=CARTESIAN_POINT('Origin',(6.49030660391053E-14,-7.54337632491957E-15,
-35.2711481293808));
#426=CARTESIAN_POINT('',(32.8501630530184,7.7414008674211,-35.2711481293808));
#427=CARTESIAN_POINT('Origin',(34.7968393820862,8.20015054845346,-35.2711481293808));
#428=CARTESIAN_POINT('Origin',(6.49030660391053E-14,-7.54337632491957E-15,
-35.2711481293808));
#429=CARTESIAN_POINT('Origin',(6.4148817500244E-14,-6.73899919556965E-15,
-30.6711481293809));
#430=CARTESIAN_POINT('',(32.8501630530184,7.7414008674211,-26.0711481293809));
#431=CARTESIAN_POINT('Origin',(6.33945689613828E-14,-5.93462206621973E-15,
-26.0711481293809));
#432=CARTESIAN_POINT('',(32.8501630530184,7.7414008674211,-30.6711481293809));
#433=CARTESIAN_POINT('Origin',(7.37947000292552E-14,-1.70259628407985E-14,
-89.4993159644055));
#434=CARTESIAN_POINT('',(-200.149428977714,-47.1667967249116,-140.413217639992));
#435=CARTESIAN_POINT('',(200.149428977715,47.1667967249116,-140.413217639992));
#436=CARTESIAN_POINT('Origin',(8.21429034958935E-14,-2.59290015524968E-14,
-140.413217639992));
#437=CARTESIAN_POINT('',(35.1978843536845,8.29465996948725,-38.5854142888192));
#438=CARTESIAN_POINT('',(117.6736566657,27.7307283471994,-89.4993159644055));
#439=CARTESIAN_POINT('Origin',(6.54464965626169E-14,-8.12292412910013E-15,
-38.5854142888192));
#440=CARTESIAN_POINT('Origin',(8.21429034958935E-14,-2.59290015524968E-14,
-140.413217639992));
#441=CARTESIAN_POINT('Origin',(6.55589343337672E-14,-8.24283469826733E-15,
-39.2711481293809));
#442=CARTESIAN_POINT('',(34.7968393820862,8.20015054845346,-38.4711481293809));
#443=CARTESIAN_POINT('Origin',(34.7968393820862,8.20015054845346,-39.2711481293808));
#444=CARTESIAN_POINT('Origin',(6.54277606748348E-14,-8.10294302359778E-15,
-38.4711481293809));
#445=CARTESIAN_POINT('Origin',(6.49030660391053E-14,-7.54337632491957E-15,
-35.2711481293808));
#446=CARTESIAN_POINT('',(31.6821572555778,7.46615105880169,-35.2711481293808));
#447=CARTESIAN_POINT('Origin',(6.49030660391053E-14,-7.54337632491957E-15,
-35.2711481293808));
#448=CARTESIAN_POINT('Origin',(34.7968393820862,8.20015054845346,-35.2711481293808));
#449=CARTESIAN_POINT('Origin',(6.4148817500244E-14,-6.73899919556965E-15,
-30.6711481293809));
#450=CARTESIAN_POINT('',(31.6821572555778,7.46615105880169,-26.0711481293809));
#451=CARTESIAN_POINT('',(31.6821572555778,7.46615105880169,-30.6711481293809));
#452=CARTESIAN_POINT('Origin',(6.33945689613828E-14,-5.93462206621973E-15,
-26.0711481293809));
#453=CARTESIAN_POINT('Origin',(8.1974246839168E-14,-2.5749135698746E-14,
-139.384616879149));
#454=CARTESIAN_POINT('',(-200.750996435112,-47.3085608564624,-139.384616879149));
#455=CARTESIAN_POINT('Origin',(32.8501630530184,7.74140086742111,-26.0711481293809));
#456=CARTESIAN_POINT('Origin',(6.49030660391053E-14,-7.54337632491957E-15,
-35.2711481293808));
#457=CARTESIAN_POINT('',(34.6666599293285,8.16947273029858,-37.2666711639643));
#458=CARTESIAN_POINT('Origin',(6.38588538321336E-14,-8.21550680450539E-15,
-37.2666711639643));
#459=CARTESIAN_POINT('',(33.9384187313419,7.99785692940631,-37.0661944457941));
#460=CARTESIAN_POINT('Origin',(34.7968393820862,8.20015054845346,-35.2711481293808));
#461=CARTESIAN_POINT('Origin',(6.39637587782049E-14,-8.14798239591961E-15,
-37.066194445794));
#462=CARTESIAN_POINT('Origin',(-2.2136729058046E-14,-2.78549481506493E-14,
-37.0770338455539));
#463=CARTESIAN_POINT('',(33.9777933656567,8.00713587355485,-37.077033845554));
#464=UNCERTAINTY_MEASURE_WITH_UNIT(LENGTH_MEASURE(0.01),#468,
'DISTANCE_ACCURACY_VALUE',
'Maximum model space distance between geometric entities at asserted c
onnectivities');
#465=UNCERTAINTY_MEASURE_WITH_UNIT(LENGTH_MEASURE(0.01),#468,
'DISTANCE_ACCURACY_VALUE',
'Maximum model space distance between geometric entities at asserted c
onnectivities');
#466=(
GEOMETRIC_REPRESENTATION_CONTEXT(3)
GLOBAL_UNCERTAINTY_ASSIGNED_CONTEXT((#464))
GLOBAL_UNIT_ASSIGNED_CONTEXT((#468,#470,#471))
REPRESENTATION_CONTEXT('','3D')
);
#467=(
GEOMETRIC_REPRESENTATION_CONTEXT(3)
GLOBAL_UNCERTAINTY_ASSIGNED_CONTEXT((#465))
GLOBAL_UNIT_ASSIGNED_CONTEXT((#468,#470,#471))
REPRESENTATION_CONTEXT('','3D')
);
#468=(
LENGTH_UNIT()
NAMED_UNIT(*)
SI_UNIT(.MILLI.,.METRE.)
);
#469=(
LENGTH_UNIT()
NAMED_UNIT(*)
SI_UNIT(.CENTI.,.METRE.)
);
#470=(
NAMED_UNIT(*)
PLANE_ANGLE_UNIT()
SI_UNIT($,.RADIAN.)
);
#471=(
NAMED_UNIT(*)
SI_UNIT($,.STERADIAN.)
SOLID_ANGLE_UNIT()
);
#472=SHAPE_DEFINITION_REPRESENTATION(#473,#474);
#473=PRODUCT_DEFINITION_SHAPE('',$,#476);
#474=SHAPE_REPRESENTATION('',(#264),#466);
#475=PRODUCT_DEFINITION_CONTEXT('part definition',#480,'design');
#476=PRODUCT_DEFINITION('ENG000025989','ENG000025989',#477,#475);
#477=PRODUCT_DEFINITION_FORMATION('00',$,#482);
#478=PRODUCT_RELATED_PRODUCT_CATEGORY('ENG000025989','ENG000025989',(#482));
#479=APPLICATION_PROTOCOL_DEFINITION('international standard',
'automotive_design',2009,#480);
#480=APPLICATION_CONTEXT(
'Core Data for Automotive Mechanical Design Process');
#481=PRODUCT_CONTEXT('part definition',#480,'mechanical');
#482=PRODUCT('ENG000025989','ENG000025989','SIMPLE',(#481));
#483=PRESENTATION_STYLE_ASSIGNMENT((#484));
#484=SURFACE_STYLE_USAGE(.BOTH.,#487);
#485=SURFACE_STYLE_RENDERING_WITH_PROPERTIES($,#491,(#486));
#486=SURFACE_STYLE_TRANSPARENT(0.);
#487=SURFACE_SIDE_STYLE('',(#488,#485));
#488=SURFACE_STYLE_FILL_AREA(#489);
#489=FILL_AREA_STYLE('',(#490));
#490=FILL_AREA_STYLE_COLOUR('',#491);
#491=COLOUR_RGB('',1.,1.,1.);
ENDSEC;
END-ISO-10303-21;
