ISO-10303-21;
HEADER;
/* Generated by software containing ST-Developer
 * from STEP Tools, Inc. (www.steptools.com) 
 */

FILE_DESCRIPTION(
/* description */ ('This is a sample STEP configuration'),
/* implementation_level */ '2;1');

FILE_NAME(
/* name */ '114-0291xxxxxxxxx SIMPLE.ipt_Rev_00.1.stp',
/* time_stamp */ '2023-04-26T12:50:15+02:00',
/* author */ ('powerJobs'),
/* organization */ ('coolOrange'),
/* preprocessor_version */ 'ST-DEVELOPER v19.2',
/* originating_system */ 'Autodesk Inventor 2023',
/* authorisation */ '');

FILE_SCHEMA (('AUTOMOTIVE_DESIGN { 1 0 10303 214 3 1 1 }'));
ENDSEC;

DATA;
#10=MECHANICAL_DESIGN_GEOMETRIC_PRESENTATION_REPRESENTATION('',(#13,#14),
#416);
#11=SHAPE_REPRESENTATION_RELATIONSHIP('SRR','None',#423,#12);
#12=ADVANCED_BREP_SHAPE_REPRESENTATION('',(#15,#16),#415);
#13=STYLED_ITEM('',(#432),#15);
#14=STYLED_ITEM('',(#432),#16);
#15=MANIFOLD_SOLID_BREP('Volumenk\X\F6rper1',#216);
#16=MANIFOLD_SOLID_BREP('Volumenk\X\F6rper1',#217);
#17=FACE_BOUND('',#49,.T.);
#18=PLANE('',#265);
#19=CYLINDRICAL_SURFACE('',#250,33.7);
#20=CYLINDRICAL_SURFACE('',#262,32.5);
#21=TOROIDAL_SURFACE('',#244,35.2,1.5);
#22=TOROIDAL_SURFACE('',#247,35.2,1.5);
#23=TOROIDAL_SURFACE('',#256,35.2,0.300000000000001);
#24=TOROIDAL_SURFACE('',#259,35.2,2.7);
#25=FACE_OUTER_BOUND('',#39,.T.);
#26=FACE_OUTER_BOUND('',#40,.T.);
#27=FACE_OUTER_BOUND('',#41,.T.);
#28=FACE_OUTER_BOUND('',#42,.T.);
#29=FACE_OUTER_BOUND('',#43,.T.);
#30=FACE_OUTER_BOUND('',#44,.T.);
#31=FACE_OUTER_BOUND('',#45,.T.);
#32=FACE_OUTER_BOUND('',#46,.T.);
#33=FACE_OUTER_BOUND('',#47,.T.);
#34=FACE_OUTER_BOUND('',#48,.T.);
#35=FACE_OUTER_BOUND('',#50,.T.);
#36=FACE_OUTER_BOUND('',#51,.T.);
#37=FACE_OUTER_BOUND('',#52,.T.);
#38=FACE_OUTER_BOUND('',#53,.T.);
#39=EDGE_LOOP('',(#137,#138,#139,#140,#141));
#40=EDGE_LOOP('',(#142,#143,#144,#145));
#41=EDGE_LOOP('',(#146,#147,#148,#149));
#42=EDGE_LOOP('',(#150,#151,#152,#153));
#43=EDGE_LOOP('',(#154,#155,#156,#157,#158));
#44=EDGE_LOOP('',(#159,#160,#161,#162));
#45=EDGE_LOOP('',(#163,#164,#165,#166));
#46=EDGE_LOOP('',(#167,#168,#169,#170));
#47=EDGE_LOOP('',(#171,#172,#173,#174,#175,#176));
#48=EDGE_LOOP('',(#177));
#49=EDGE_LOOP('',(#178));
#50=EDGE_LOOP('',(#179,#180,#181,#182));
#51=EDGE_LOOP('',(#183,#184,#185,#186));
#52=EDGE_LOOP('',(#187,#188,#189,#190));
#53=EDGE_LOOP('',(#191,#192,#193,#194));
#54=LINE('',#358,#63);
#55=LINE('',#373,#64);
#56=LINE('',#379,#65);
#57=LINE('',#392,#66);
#58=LINE('',#395,#67);
#59=LINE('',#401,#68);
#60=LINE('',#405,#69);
#61=LINE('',#409,#70);
#62=LINE('',#412,#71);
#63=VECTOR('',#280,160.248785704396);
#64=VECTOR('',#301,33.7);
#65=VECTOR('',#306,160.248785704396);
#66=VECTOR('',#325,33.7);
#67=VECTOR('',#330,285.05);
#68=VECTOR('',#337,57.8443738927891);
#69=VECTOR('',#342,34.9085185434277);
#70=VECTOR('',#347,56.3954851533555);
#71=VECTOR('',#352,79.3313405027169);
#72=CIRCLE('',#241,35.4475714087911);
#73=CIRCLE('',#242,285.05);
#74=CIRCLE('',#243,285.05);
#75=CIRCLE('',#245,35.2);
#76=CIRCLE('',#246,1.5);
#77=CIRCLE('',#248,1.5);
#78=CIRCLE('',#249,33.7);
#79=CIRCLE('',#251,33.7);
#80=CIRCLE('',#253,284.851942872967);
#81=CIRCLE('',#254,35.2495142817582);
#82=CIRCLE('',#255,284.851942872967);
#83=CIRCLE('',#257,0.300000000000001);
#84=CIRCLE('',#258,35.2);
#85=CIRCLE('',#260,32.5);
#86=CIRCLE('',#261,2.7);
#87=CIRCLE('',#263,32.5);
#88=CIRCLE('',#267,35.6329629131445);
#89=CIRCLE('',#268,80.0557848724337);
#90=CIRCLE('',#270,34.1840741737109);
#91=CIRCLE('',#272,78.6068961330001);
#92=VERTEX_POINT('',#355);
#93=VERTEX_POINT('',#357);
#94=VERTEX_POINT('',#359);
#95=VERTEX_POINT('',#363);
#96=VERTEX_POINT('',#367);
#97=VERTEX_POINT('',#371);
#98=VERTEX_POINT('',#375);
#99=VERTEX_POINT('',#376);
#100=VERTEX_POINT('',#378);
#101=VERTEX_POINT('',#383);
#102=VERTEX_POINT('',#387);
#103=VERTEX_POINT('',#391);
#104=VERTEX_POINT('',#398);
#105=VERTEX_POINT('',#400);
#106=VERTEX_POINT('',#404);
#107=VERTEX_POINT('',#408);
#108=EDGE_CURVE('',#92,#92,#72,.T.);
#109=EDGE_CURVE('',#92,#93,#54,.T.);
#110=EDGE_CURVE('',#94,#93,#73,.T.);
#111=EDGE_CURVE('',#93,#94,#74,.T.);
#112=EDGE_CURVE('',#95,#95,#75,.T.);
#113=EDGE_CURVE('',#95,#92,#76,.T.);
#114=EDGE_CURVE('',#95,#96,#77,.T.);
#115=EDGE_CURVE('',#96,#96,#78,.T.);
#116=EDGE_CURVE('',#97,#97,#79,.T.);
#117=EDGE_CURVE('',#97,#96,#55,.T.);
#118=EDGE_CURVE('',#98,#99,#80,.T.);
#119=EDGE_CURVE('',#99,#100,#56,.T.);
#120=EDGE_CURVE('',#100,#100,#81,.T.);
#121=EDGE_CURVE('',#99,#98,#82,.T.);
#122=EDGE_CURVE('',#100,#101,#83,.T.);
#123=EDGE_CURVE('',#101,#101,#84,.T.);
#124=EDGE_CURVE('',#102,#102,#85,.T.);
#125=EDGE_CURVE('',#102,#101,#86,.T.);
#126=EDGE_CURVE('',#102,#103,#57,.T.);
#127=EDGE_CURVE('',#103,#103,#87,.T.);
#128=EDGE_CURVE('',#98,#94,#58,.T.);
#129=EDGE_CURVE('',#104,#104,#88,.T.);
#130=EDGE_CURVE('',#104,#105,#59,.T.);
#131=EDGE_CURVE('',#105,#105,#89,.T.);
#132=EDGE_CURVE('',#104,#106,#60,.T.);
#133=EDGE_CURVE('',#106,#106,#90,.T.);
#134=EDGE_CURVE('',#106,#107,#61,.T.);
#135=EDGE_CURVE('',#107,#107,#91,.T.);
#136=EDGE_CURVE('',#105,#107,#62,.T.);
#137=ORIENTED_EDGE('',*,*,#108,.T.);
#138=ORIENTED_EDGE('',*,*,#109,.T.);
#139=ORIENTED_EDGE('',*,*,#110,.F.);
#140=ORIENTED_EDGE('',*,*,#111,.F.);
#141=ORIENTED_EDGE('',*,*,#109,.F.);
#142=ORIENTED_EDGE('',*,*,#112,.T.);
#143=ORIENTED_EDGE('',*,*,#113,.T.);
#144=ORIENTED_EDGE('',*,*,#108,.F.);
#145=ORIENTED_EDGE('',*,*,#113,.F.);
#146=ORIENTED_EDGE('',*,*,#112,.F.);
#147=ORIENTED_EDGE('',*,*,#114,.T.);
#148=ORIENTED_EDGE('',*,*,#115,.T.);
#149=ORIENTED_EDGE('',*,*,#114,.F.);
#150=ORIENTED_EDGE('',*,*,#116,.T.);
#151=ORIENTED_EDGE('',*,*,#117,.T.);
#152=ORIENTED_EDGE('',*,*,#115,.F.);
#153=ORIENTED_EDGE('',*,*,#117,.F.);
#154=ORIENTED_EDGE('',*,*,#118,.T.);
#155=ORIENTED_EDGE('',*,*,#119,.T.);
#156=ORIENTED_EDGE('',*,*,#120,.F.);
#157=ORIENTED_EDGE('',*,*,#119,.F.);
#158=ORIENTED_EDGE('',*,*,#121,.T.);
#159=ORIENTED_EDGE('',*,*,#120,.T.);
#160=ORIENTED_EDGE('',*,*,#122,.T.);
#161=ORIENTED_EDGE('',*,*,#123,.F.);
#162=ORIENTED_EDGE('',*,*,#122,.F.);
#163=ORIENTED_EDGE('',*,*,#124,.F.);
#164=ORIENTED_EDGE('',*,*,#125,.T.);
#165=ORIENTED_EDGE('',*,*,#123,.T.);
#166=ORIENTED_EDGE('',*,*,#125,.F.);
#167=ORIENTED_EDGE('',*,*,#124,.T.);
#168=ORIENTED_EDGE('',*,*,#126,.T.);
#169=ORIENTED_EDGE('',*,*,#127,.F.);
#170=ORIENTED_EDGE('',*,*,#126,.F.);
#171=ORIENTED_EDGE('',*,*,#118,.F.);
#172=ORIENTED_EDGE('',*,*,#128,.T.);
#173=ORIENTED_EDGE('',*,*,#110,.T.);
#174=ORIENTED_EDGE('',*,*,#111,.T.);
#175=ORIENTED_EDGE('',*,*,#128,.F.);
#176=ORIENTED_EDGE('',*,*,#121,.F.);
#177=ORIENTED_EDGE('',*,*,#116,.F.);
#178=ORIENTED_EDGE('',*,*,#127,.T.);
#179=ORIENTED_EDGE('',*,*,#129,.F.);
#180=ORIENTED_EDGE('',*,*,#130,.T.);
#181=ORIENTED_EDGE('',*,*,#131,.T.);
#182=ORIENTED_EDGE('',*,*,#130,.F.);
#183=ORIENTED_EDGE('',*,*,#129,.T.);
#184=ORIENTED_EDGE('',*,*,#132,.T.);
#185=ORIENTED_EDGE('',*,*,#133,.F.);
#186=ORIENTED_EDGE('',*,*,#132,.F.);
#187=ORIENTED_EDGE('',*,*,#133,.T.);
#188=ORIENTED_EDGE('',*,*,#134,.T.);
#189=ORIENTED_EDGE('',*,*,#135,.F.);
#190=ORIENTED_EDGE('',*,*,#134,.F.);
#191=ORIENTED_EDGE('',*,*,#131,.F.);
#192=ORIENTED_EDGE('',*,*,#136,.T.);
#193=ORIENTED_EDGE('',*,*,#135,.T.);
#194=ORIENTED_EDGE('',*,*,#136,.F.);
#195=CONICAL_SURFACE('',#240,160.248785704396,1.40499004785543);
#196=CONICAL_SURFACE('',#252,160.050728577363,1.40499004785543);
#197=CONICAL_SURFACE('',#264,285.05,0.165806278939462);
#198=CONICAL_SURFACE('',#266,57.8443738927891,0.261799387799149);
#199=CONICAL_SURFACE('',#269,34.9085185434277,1.30899693899575);
#200=CONICAL_SURFACE('',#271,56.3954851533555,0.261799387799149);
#201=CONICAL_SURFACE('',#273,79.3313405027169,1.30899693899573);
#202=ADVANCED_FACE('',(#25),#195,.T.);
#203=ADVANCED_FACE('',(#26),#21,.T.);
#204=ADVANCED_FACE('',(#27),#22,.F.);
#205=ADVANCED_FACE('',(#28),#19,.T.);
#206=ADVANCED_FACE('',(#29),#196,.F.);
#207=ADVANCED_FACE('',(#30),#23,.F.);
#208=ADVANCED_FACE('',(#31),#24,.T.);
#209=ADVANCED_FACE('',(#32),#20,.F.);
#210=ADVANCED_FACE('',(#33),#197,.T.);
#211=ADVANCED_FACE('',(#34,#17),#18,.F.);
#212=ADVANCED_FACE('',(#35),#198,.T.);
#213=ADVANCED_FACE('',(#36),#199,.F.);
#214=ADVANCED_FACE('',(#37),#200,.F.);
#215=ADVANCED_FACE('',(#38),#201,.T.);
#216=CLOSED_SHELL('',(#202,#203,#204,#205,#206,#207,#208,#209,#210,#211));
#217=CLOSED_SHELL('',(#212,#213,#214,#215));
#218=DERIVED_UNIT_ELEMENT(#221,1.);
#219=DERIVED_UNIT_ELEMENT(#418,-3.);
#220=DIMENSIONAL_EXPONENTS(0.,1.,0.,0.,0.,0.,0.);
#221=(
CONVERSION_BASED_UNIT('gram',#223)
MASS_UNIT()
NAMED_UNIT(#220)
);
#222=(
MASS_UNIT()
NAMED_UNIT(*)
SI_UNIT(.KILO.,.GRAM.)
);
#223=MASS_MEASURE_WITH_UNIT(MASS_MEASURE(0.001),#222);
#224=DERIVED_UNIT((#218,#219));
#225=MEASURE_REPRESENTATION_ITEM('density measure',
POSITIVE_RATIO_MEASURE(0.),#224);
#226=PROPERTY_DEFINITION_REPRESENTATION(#231,#228);
#227=PROPERTY_DEFINITION_REPRESENTATION(#232,#229);
#228=REPRESENTATION('material name',(#230),#415);
#229=REPRESENTATION('density',(#225),#415);
#230=DESCRIPTIVE_REPRESENTATION_ITEM('ACC.TECHN. INFO',
'ACC.TECHN. INFO');
#231=PROPERTY_DEFINITION('material property','material name',#425);
#232=PROPERTY_DEFINITION('material property','density of part',#425);
#233=DATE_TIME_ROLE('creation_date');
#234=APPLIED_DATE_AND_TIME_ASSIGNMENT(#235,#233,(#425));
#235=DATE_AND_TIME(#236,#237);
#236=CALENDAR_DATE(2022,6,5);
#237=LOCAL_TIME(0,0,0.,#238);
#238=COORDINATED_UNIVERSAL_TIME_OFFSET(0,0,.BEHIND.);
#239=AXIS2_PLACEMENT_3D('placement',#353,#274,#275);
#240=AXIS2_PLACEMENT_3D('',#354,#276,#277);
#241=AXIS2_PLACEMENT_3D('',#356,#278,#279);
#242=AXIS2_PLACEMENT_3D('',#360,#281,#282);
#243=AXIS2_PLACEMENT_3D('',#361,#283,#284);
#244=AXIS2_PLACEMENT_3D('',#362,#285,#286);
#245=AXIS2_PLACEMENT_3D('',#364,#287,#288);
#246=AXIS2_PLACEMENT_3D('',#365,#289,#290);
#247=AXIS2_PLACEMENT_3D('',#366,#291,#292);
#248=AXIS2_PLACEMENT_3D('',#368,#293,#294);
#249=AXIS2_PLACEMENT_3D('',#369,#295,#296);
#250=AXIS2_PLACEMENT_3D('',#370,#297,#298);
#251=AXIS2_PLACEMENT_3D('',#372,#299,#300);
#252=AXIS2_PLACEMENT_3D('',#374,#302,#303);
#253=AXIS2_PLACEMENT_3D('',#377,#304,#305);
#254=AXIS2_PLACEMENT_3D('',#380,#307,#308);
#255=AXIS2_PLACEMENT_3D('',#381,#309,#310);
#256=AXIS2_PLACEMENT_3D('',#382,#311,#312);
#257=AXIS2_PLACEMENT_3D('',#384,#313,#314);
#258=AXIS2_PLACEMENT_3D('',#385,#315,#316);
#259=AXIS2_PLACEMENT_3D('',#386,#317,#318);
#260=AXIS2_PLACEMENT_3D('',#388,#319,#320);
#261=AXIS2_PLACEMENT_3D('',#389,#321,#322);
#262=AXIS2_PLACEMENT_3D('',#390,#323,#324);
#263=AXIS2_PLACEMENT_3D('',#393,#326,#327);
#264=AXIS2_PLACEMENT_3D('',#394,#328,#329);
#265=AXIS2_PLACEMENT_3D('',#396,#331,#332);
#266=AXIS2_PLACEMENT_3D('',#397,#333,#334);
#267=AXIS2_PLACEMENT_3D('',#399,#335,#336);
#268=AXIS2_PLACEMENT_3D('',#402,#338,#339);
#269=AXIS2_PLACEMENT_3D('',#403,#340,#341);
#270=AXIS2_PLACEMENT_3D('',#406,#343,#344);
#271=AXIS2_PLACEMENT_3D('',#407,#345,#346);
#272=AXIS2_PLACEMENT_3D('',#410,#348,#349);
#273=AXIS2_PLACEMENT_3D('',#411,#350,#351);
#274=DIRECTION('axis',(0.,0.,1.));
#275=DIRECTION('refdir',(1.,0.,0.));
#276=DIRECTION('center_axis',(-1.87280547238673E-16,4.66527731106909E-18,
-1.));
#277=DIRECTION('ref_axis',(-0.999402017199651,-0.03457756523048,3.31022288993934E-18));
#278=DIRECTION('center_axis',(-1.87280547238673E-16,4.66527731106909E-18,
-1.));
#279=DIRECTION('ref_axis',(0.999402017199651,0.03457756523048,-1.87007242762042E-16));
#280=DIRECTION('',(0.98569581971128,0.0341033547230367,-0.165047605860678));
#281=DIRECTION('center_axis',(-1.87280547238673E-16,4.66527731106909E-18,
-1.));
#282=DIRECTION('ref_axis',(0.999402017199651,0.03457756523048,-1.87007242762042E-16));
#283=DIRECTION('center_axis',(-1.87280547238673E-16,4.66527731106909E-18,
-1.));
#284=DIRECTION('ref_axis',(0.999402017199651,0.03457756523048,-1.87007242762042E-16));
#285=DIRECTION('center_axis',(-1.87280547238673E-16,4.66527731106909E-18,
-1.));
#286=DIRECTION('ref_axis',(-0.999402017199651,-0.03457756523048,1.93608374866512E-16));
#287=DIRECTION('center_axis',(-1.87280547238673E-16,4.66527731106909E-18,
-1.));
#288=DIRECTION('ref_axis',(0.999402017199651,0.03457756523048,-1.87007242762042E-16));
#289=DIRECTION('center_axis',(-0.0345775652304799,0.999402017199651,1.11381928940234E-17));
#290=DIRECTION('ref_axis',(0.999402017199651,0.0345775652304799,-2.4201046858314E-16));
#291=DIRECTION('center_axis',(-1.87280547238673E-16,4.66527731106909E-18,
-1.));
#292=DIRECTION('ref_axis',(-0.999402017199651,-0.03457756523048,1.93608374866512E-16));
#293=DIRECTION('center_axis',(-0.0345775652304799,0.999402017199651,1.11381928940234E-17));
#294=DIRECTION('ref_axis',(0.999402017199651,0.0345775652304799,-2.4201046858314E-16));
#295=DIRECTION('center_axis',(-1.87280547238673E-16,4.66527731106909E-18,
-1.));
#296=DIRECTION('ref_axis',(0.999402017199651,0.03457756523048,-1.87007242762042E-16));
#297=DIRECTION('center_axis',(-1.87280547238673E-16,4.66527731106909E-18,
-1.));
#298=DIRECTION('ref_axis',(-0.999402017199651,-0.03457756523048,3.31022288993934E-18));
#299=DIRECTION('center_axis',(-1.87280547238673E-16,4.66527731106909E-18,
-1.));
#300=DIRECTION('ref_axis',(0.999402017199651,0.03457756523048,-1.87007242762042E-16));
#301=DIRECTION('',(-1.87280547238673E-16,4.66527731106909E-18,-1.));
#302=DIRECTION('center_axis',(-1.87280547238673E-16,4.66527731106909E-18,
-1.));
#303=DIRECTION('ref_axis',(-0.999402017199651,-0.03457756523048,3.31022288993934E-18));
#304=DIRECTION('center_axis',(-1.87280547238673E-16,4.66527731106909E-18,
-1.));
#305=DIRECTION('ref_axis',(0.999402017199651,0.03457756523048,-1.87007242762042E-16));
#306=DIRECTION('',(-0.98569581971128,-0.0341033547230367,0.165047605860678));
#307=DIRECTION('center_axis',(-1.87280547238673E-16,4.66527731106909E-18,
-1.));
#308=DIRECTION('ref_axis',(0.999402017199651,0.03457756523048,-1.87007242762042E-16));
#309=DIRECTION('center_axis',(-1.87280547238673E-16,4.66527731106909E-18,
-1.));
#310=DIRECTION('ref_axis',(0.999402017199651,0.03457756523048,-1.87007242762042E-16));
#311=DIRECTION('center_axis',(-1.87280547238673E-16,4.66527731106909E-18,
-1.));
#312=DIRECTION('ref_axis',(-0.999402017199651,-0.03457756523048,2.00152883312704E-16));
#313=DIRECTION('center_axis',(0.0345775652304799,-0.999402017199651,-1.11381928940234E-17));
#314=DIRECTION('ref_axis',(0.999402017199651,0.0345775652304798,-2.5019110414088E-16));
#315=DIRECTION('center_axis',(-1.87280547238673E-16,4.66527731106909E-18,
-1.));
#316=DIRECTION('ref_axis',(0.999402017199651,0.03457756523048,-1.87007242762042E-16));
#317=DIRECTION('center_axis',(-1.87280547238673E-16,4.66527731106909E-18,
-1.));
#318=DIRECTION('ref_axis',(-0.999402017199651,-0.03457756523048,1.87478294395805E-16));
#319=DIRECTION('center_axis',(-1.87280547238673E-16,4.66527731106909E-18,
-1.));
#320=DIRECTION('ref_axis',(0.999402017199651,0.03457756523048,-1.87007242762042E-16));
#321=DIRECTION('center_axis',(0.0345775652304799,-0.999402017199651,-1.11381928940234E-17));
#322=DIRECTION('ref_axis',(0.999402017199651,0.0345775652304799,-2.34347867994756E-16));
#323=DIRECTION('center_axis',(-1.87280547238673E-16,4.66527731106909E-18,
-1.));
#324=DIRECTION('ref_axis',(-0.999402017199651,-0.03457756523048,3.31022288993934E-18));
#325=DIRECTION('',(1.87280547238673E-16,-4.66527731106909E-18,1.));
#326=DIRECTION('center_axis',(-1.87280547238673E-16,4.66527731106909E-18,
-1.));
#327=DIRECTION('ref_axis',(0.999402017199651,0.03457756523048,-1.87007242762042E-16));
#328=DIRECTION('center_axis',(1.87280547238673E-16,-4.66527731106909E-18,
1.));
#329=DIRECTION('ref_axis',(0.999402017199651,0.03457756523048,-1.87007242762042E-16));
#330=DIRECTION('',(-0.164948910231135,-0.00570694435778218,0.986285601537231));
#331=DIRECTION('center_axis',(-1.84778693034879E-16,4.75183709926245E-18,
-1.));
#332=DIRECTION('ref_axis',(-0.999402017199651,-0.03457756523048,1.84503891597309E-16));
#333=DIRECTION('center_axis',(1.43125694413737E-16,-6.19295814172671E-18,
1.));
#334=DIRECTION('ref_axis',(-0.999402017199651,-0.03457756523048,1.44292720529716E-16));
#335=DIRECTION('center_axis',(-1.43125694413737E-16,6.19295814172671E-18,
-1.));
#336=DIRECTION('ref_axis',(0.999402017199651,0.03457756523048,-1.42825970296074E-16));
#337=DIRECTION('',(0.258664275765147,0.0089493324149229,0.965925826289068));
#338=DIRECTION('center_axis',(-1.43125694413737E-16,6.19295814172671E-18,
-1.));
#339=DIRECTION('ref_axis',(0.999402017199651,0.03457756523048,-1.42825970296074E-16));
#340=DIRECTION('center_axis',(-1.43125694413737E-16,6.19295814172671E-18,
-1.));
#341=DIRECTION('ref_axis',(-0.999402017199651,-0.03457756523048,1.44292720529716E-16));
#342=DIRECTION('',(-0.965348219258535,-0.0333993632663154,0.25881904510252));
#343=DIRECTION('center_axis',(-1.43125694413737E-16,6.19295814172671E-18,
-1.));
#344=DIRECTION('ref_axis',(0.999402017199651,0.03457756523048,-1.42825970296074E-16));
#345=DIRECTION('center_axis',(1.43125694413737E-16,-6.19295814172671E-18,
1.));
#346=DIRECTION('ref_axis',(-0.999402017199651,-0.03457756523048,1.44292720529716E-16));
#347=DIRECTION('',(0.258664275765147,0.0089493324149229,0.965925826289068));
#348=DIRECTION('center_axis',(-1.43125694413737E-16,6.19295814172671E-18,
-1.));
#349=DIRECTION('ref_axis',(0.999402017199651,0.03457756523048,-1.42825970296074E-16));
#350=DIRECTION('center_axis',(-1.43125694413737E-16,6.19295814172671E-18,
-1.));
#351=DIRECTION('ref_axis',(-0.999402017199651,-0.03457756523048,1.44292720529716E-16));
#352=DIRECTION('',(-0.965348219258529,-0.0333993632663152,0.258819045102542));
#353=CARTESIAN_POINT('',(0.,0.,0.));
#354=CARTESIAN_POINT('Origin',(-8.76011574786259E-15,1.21935866596566E-16,
-61.5083212805813));
#355=CARTESIAN_POINT('',(35.4263743707744,1.22569071264956,-40.6237604638254));
#356=CARTESIAN_POINT('Origin',(-4.8488437692612E-15,2.4503598866512E-17,
-40.6237604638254));
#357=CARTESIAN_POINT('',(284.879545002761,9.85633496894829,-82.3928820973372));
#358=CARTESIAN_POINT('',(160.152959686768,5.54101284079893,-61.5083212805813));
#359=CARTESIAN_POINT('',(-284.879545002761,-9.85633496894832,-82.3928820973371));
#360=CARTESIAN_POINT('Origin',(-1.2671387726464E-14,2.19368134326619E-16,
-82.3928820973372));
#361=CARTESIAN_POINT('Origin',(-1.2671387726464E-14,2.19368134326619E-16,
-82.3928820973372));
#362=CARTESIAN_POINT('Origin',(-5.12591193004548E-15,3.14055426251407E-17,
-42.1031888661313));
#363=CARTESIAN_POINT('',(35.1789510054277,1.21713029611289,-40.6031888661313));
#364=CARTESIAN_POINT('Origin',(-4.84499110918747E-15,2.44076266585371E-17,
-40.6031888661313));
#365=CARTESIAN_POINT('Origin',(35.1789510054277,1.21713029611289,-42.1031888661313));
#366=CARTESIAN_POINT('Origin',(-4.56407028832946E-15,1.74097106919334E-17,
-39.1031888661313));
#367=CARTESIAN_POINT('',(33.6798479796283,1.16526394826717,-39.1031888661313));
#368=CARTESIAN_POINT('Origin',(35.1789510054277,1.21713029611289,-39.1031888661313));
#369=CARTESIAN_POINT('Origin',(-4.56407028832946E-15,1.74097106919334E-17,
-39.1031888661313));
#370=CARTESIAN_POINT('Origin',(-3.69321574366964E-15,-4.28382880453782E-18,
-34.4531888661313));
#371=CARTESIAN_POINT('',(33.6798479796283,1.16526394826717,-29.8031888661313));
#372=CARTESIAN_POINT('Origin',(-2.82236119900981E-15,-2.59773683010091E-17,
-29.8031888661313));
#373=CARTESIAN_POINT('',(33.6798479796283,1.16526394826717,-34.4531888661313));
#374=CARTESIAN_POINT('Origin',(-8.98177027649001E-15,1.27457421603469E-16,
-62.691864002426));
#375=CARTESIAN_POINT('',(-284.681606310483,-9.84948663571895,-83.5764248191818));
#376=CARTESIAN_POINT('',(284.681606310483,9.84948663571895,-83.5764248191819));
#377=CARTESIAN_POINT('Origin',(-1.28930422550914E-14,2.24889689333522E-16,
-83.5764248191819));
#378=CARTESIAN_POINT('',(35.2284356784971,1.21884237942023,-41.8073031856701));
#379=CARTESIAN_POINT('',(159.95502099449,5.53416450756959,-62.691864002426));
#380=CARTESIAN_POINT('Origin',(-5.07049829788862E-15,3.00251538734149E-17,
-41.8073031856701));
#381=CARTESIAN_POINT('Origin',(-1.28930422550914E-14,2.24889689333522E-16,
-83.5764248191819));
#382=CARTESIAN_POINT('Origin',(-5.12591193004548E-15,3.14055426251407E-17,
-42.1031888661313));
#383=CARTESIAN_POINT('',(35.1789510054277,1.21713029611289,-41.8031888661313));
#384=CARTESIAN_POINT('Origin',(35.1789510054277,1.21713029611289,-42.1031888661313));
#385=CARTESIAN_POINT('Origin',(-5.06972776587388E-15,3.00059594318201E-17,
-41.8031888661313));
#386=CARTESIAN_POINT('Origin',(-4.56407028832946E-15,1.74097106919334E-17,
-39.1031888661313));
#387=CARTESIAN_POINT('',(32.4805655589887,1.1237708699906,-39.1031888661313));
#388=CARTESIAN_POINT('Origin',(-4.56407028832946E-15,1.74097106919334E-17,
-39.1031888661313));
#389=CARTESIAN_POINT('Origin',(35.1789510054277,1.21713029611289,-39.1031888661313));
#390=CARTESIAN_POINT('Origin',(-3.69321574366964E-15,-4.28382880453782E-18,
-34.4531888661313));
#391=CARTESIAN_POINT('',(32.4805655589887,1.1237708699906,-29.8031888661313));
#392=CARTESIAN_POINT('',(32.4805655589887,1.1237708699906,-34.4531888661313));
#393=CARTESIAN_POINT('Origin',(-2.82236119900981E-15,-2.59773683010091E-17,
-29.8031888661313));
#394=CARTESIAN_POINT('Origin',(-1.2671387726464E-14,2.19368134326619E-16,
-82.3928820973372));
#395=CARTESIAN_POINT('',(-284.879545002761,-9.85633496894836,-82.3928820973371));
#396=CARTESIAN_POINT('Origin',(33.6798479796283,1.16526394826718,-29.8031888661313));
#397=CARTESIAN_POINT('Origin',(2.01522028689441E-14,2.46519032881566E-31,
42.4026968500421));
#398=CARTESIAN_POINT('',(35.611655014197,1.23210109948453,-40.4914174337848));
#399=CARTESIAN_POINT('Origin',(8.28792519925972E-15,5.13359779955251E-16,
-40.4914174337848));
#400=CARTESIAN_POINT('',(80.0079128900116,2.76813412350384,125.296811133869));
#401=CARTESIAN_POINT('',(57.8097839521043,2.00011761149418,42.4026968500421));
#402=CARTESIAN_POINT('Origin',(3.20164805386285E-14,-5.1335977995525E-16,
125.296811133869));
#403=CARTESIAN_POINT('Origin',(8.31570794092807E-15,5.12157638320799E-16,
-40.2973031499579));
#404=CARTESIAN_POINT('',(34.1636326853092,1.18200205458505,-40.103188866131));
#405=CARTESIAN_POINT('',(34.8876438497531,1.20705157703479,-40.2973031499579));
#406=CARTESIAN_POINT('Origin',(8.34349068259642E-15,5.10955496686348E-16,
-40.103188866131));
#407=CARTESIAN_POINT('Origin',(2.02077683522808E-14,-2.40428326890203E-18,
42.7909254176959));
#408=CARTESIAN_POINT('',(78.5598905611238,2.71803507860436,125.685039701523));
#409=CARTESIAN_POINT('',(56.3617616232165,1.95001856659471,42.7909254176959));
#410=CARTESIAN_POINT('Origin',(3.20720460219652E-14,-5.15764063224153E-16,
125.685039701523));
#411=CARTESIAN_POINT('Origin',(3.20442632802968E-14,-5.14561921589702E-16,
125.490925417696));
#412=CARTESIAN_POINT('',(79.2839017255677,2.7430846010541,125.490925417696));
#413=UNCERTAINTY_MEASURE_WITH_UNIT(LENGTH_MEASURE(0.01),#417,
'DISTANCE_ACCURACY_VALUE',
'Maximum model space distance between geometric entities at asserted c
onnectivities');
#414=UNCERTAINTY_MEASURE_WITH_UNIT(LENGTH_MEASURE(0.01),#417,
'DISTANCE_ACCURACY_VALUE',
'Maximum model space distance between geometric entities at asserted c
onnectivities');
#415=(
GEOMETRIC_REPRESENTATION_CONTEXT(3)
GLOBAL_UNCERTAINTY_ASSIGNED_CONTEXT((#413))
GLOBAL_UNIT_ASSIGNED_CONTEXT((#417,#419,#420))
REPRESENTATION_CONTEXT('','3D')
);
#416=(
GEOMETRIC_REPRESENTATION_CONTEXT(3)
GLOBAL_UNCERTAINTY_ASSIGNED_CONTEXT((#414))
GLOBAL_UNIT_ASSIGNED_CONTEXT((#417,#419,#420))
REPRESENTATION_CONTEXT('','3D')
);
#417=(
LENGTH_UNIT()
NAMED_UNIT(*)
SI_UNIT(.MILLI.,.METRE.)
);
#418=(
LENGTH_UNIT()
NAMED_UNIT(*)
SI_UNIT(.CENTI.,.METRE.)
);
#419=(
NAMED_UNIT(*)
PLANE_ANGLE_UNIT()
SI_UNIT($,.RADIAN.)
);
#420=(
NAMED_UNIT(*)
SI_UNIT($,.STERADIAN.)
SOLID_ANGLE_UNIT()
);
#421=SHAPE_DEFINITION_REPRESENTATION(#422,#423);
#422=PRODUCT_DEFINITION_SHAPE('',$,#425);
#423=SHAPE_REPRESENTATION('',(#239),#415);
#424=PRODUCT_DEFINITION_CONTEXT('part definition',#429,'design');
#425=PRODUCT_DEFINITION('ENG000025992','ENG000025992',#426,#424);
#426=PRODUCT_DEFINITION_FORMATION('00',$,#431);
#427=PRODUCT_RELATED_PRODUCT_CATEGORY('ENG000025992','ENG000025992',(#431));
#428=APPLICATION_PROTOCOL_DEFINITION('international standard',
'automotive_design',2009,#429);
#429=APPLICATION_CONTEXT(
'Core Data for Automotive Mechanical Design Process');
#430=PRODUCT_CONTEXT('part definition',#429,'mechanical');
#431=PRODUCT('ENG000025992','ENG000025992','SIMPLE',(#430));
#432=PRESENTATION_STYLE_ASSIGNMENT((#433));
#433=SURFACE_STYLE_USAGE(.BOTH.,#436);
#434=SURFACE_STYLE_RENDERING_WITH_PROPERTIES($,#440,(#435));
#435=SURFACE_STYLE_TRANSPARENT(0.);
#436=SURFACE_SIDE_STYLE('',(#437,#434));
#437=SURFACE_STYLE_FILL_AREA(#438);
#438=FILL_AREA_STYLE('',(#439));
#439=FILL_AREA_STYLE_COLOUR('',#440);
#440=COLOUR_RGB('',1.,1.,1.);
ENDSEC;
END-ISO-10303-21;
