ISO-10303-21;
HEADER;
/* Generated by software containing ST-Developer
 * from STEP Tools, Inc. (www.steptools.com) 
 */

FILE_DESCRIPTION(
/* description */ ('This is a sample STEP configuration'),
/* implementation_level */ '2;1');

FILE_NAME(
/* name */ '192-20902xxxxxxxx SIMPLE.ipt_Rev_00.1.stp',
/* time_stamp */ '2023-04-26T13:59:06+02:00',
/* author */ ('powerJobs'),
/* organization */ ('coolOrange'),
/* preprocessor_version */ 'ST-DEVELOPER v19.2',
/* originating_system */ 'Autodesk Inventor 2023',
/* authorisation */ '');

FILE_SCHEMA (('AUTOMOTIVE_DESIGN { 1 0 10303 214 3 1 1 }'));
ENDSEC;

DATA;
#10=MECHANICAL_DESIGN_GEOMETRIC_PRESENTATION_REPRESENTATION('',(#115,#116,
#117,#118,#119,#120,#121,#122,#123,#124),#254);
#11=SHAPE_REPRESENTATION_RELATIONSHIP('SRR','None',#261,#12);
#12=ADVANCED_BREP_SHAPE_REPRESENTATION('',(#13),#253);
#13=MANIFOLD_SOLID_BREP('Volumenk\X\F6rper1',#134);
#14=CYLINDRICAL_SURFACE('',#163,28.5);
#15=CYLINDRICAL_SURFACE('',#172,20.);
#16=FACE_BOUND('',#43,.T.);
#17=FACE_BOUND('',#46,.T.);
#18=LINE('',#225,#23);
#19=LINE('',#232,#24);
#20=LINE('',#239,#25);
#21=LINE('',#244,#26);
#22=LINE('',#248,#27);
#23=VECTOR('',#185,22.5);
#24=VECTOR('',#194,28.5);
#25=VECTOR('',#203,24.575);
#26=VECTOR('',#208,21.875);
#27=VECTOR('',#213,20.);
#28=CONICAL_SURFACE('',#159,22.5,0.785398163397448);
#29=CONICAL_SURFACE('',#167,24.575,0.0880073735277423);
#30=CONICAL_SURFACE('',#169,21.875,1.19028994968256);
#31=FACE_OUTER_BOUND('',#40,.T.);
#32=FACE_OUTER_BOUND('',#41,.T.);
#33=FACE_OUTER_BOUND('',#42,.T.);
#34=FACE_OUTER_BOUND('',#44,.T.);
#35=FACE_OUTER_BOUND('',#45,.T.);
#36=FACE_OUTER_BOUND('',#47,.T.);
#37=FACE_OUTER_BOUND('',#48,.T.);
#38=FACE_OUTER_BOUND('',#49,.T.);
#39=FACE_OUTER_BOUND('',#50,.T.);
#40=EDGE_LOOP('',(#83));
#41=EDGE_LOOP('',(#84,#85,#86,#87));
#42=EDGE_LOOP('',(#88));
#43=EDGE_LOOP('',(#89));
#44=EDGE_LOOP('',(#90,#91,#92,#93));
#45=EDGE_LOOP('',(#94));
#46=EDGE_LOOP('',(#95));
#47=EDGE_LOOP('',(#96,#97,#98,#99));
#48=EDGE_LOOP('',(#100,#101,#102,#103,#104));
#49=EDGE_LOOP('',(#105,#106,#107,#108,#109));
#50=EDGE_LOOP('',(#110));
#51=CIRCLE('',#158,21.);
#52=CIRCLE('',#160,24.);
#53=CIRCLE('',#162,28.5);
#54=CIRCLE('',#164,28.5);
#55=CIRCLE('',#166,25.4);
#56=CIRCLE('',#168,23.75);
#57=CIRCLE('',#170,20.);
#58=CIRCLE('',#171,20.);
#59=CIRCLE('',#173,20.);
#60=VERTEX_POINT('',#220);
#61=VERTEX_POINT('',#223);
#62=VERTEX_POINT('',#227);
#63=VERTEX_POINT('',#230);
#64=VERTEX_POINT('',#234);
#65=VERTEX_POINT('',#237);
#66=VERTEX_POINT('',#241);
#67=VERTEX_POINT('',#242);
#68=VERTEX_POINT('',#247);
#69=EDGE_CURVE('',#60,#60,#51,.T.);
#70=EDGE_CURVE('',#61,#61,#52,.T.);
#71=EDGE_CURVE('',#61,#60,#18,.T.);
#72=EDGE_CURVE('',#62,#62,#53,.T.);
#73=EDGE_CURVE('',#63,#63,#54,.T.);
#74=EDGE_CURVE('',#63,#62,#19,.T.);
#75=EDGE_CURVE('',#64,#64,#55,.T.);
#76=EDGE_CURVE('',#65,#65,#56,.T.);
#77=EDGE_CURVE('',#65,#64,#20,.T.);
#78=EDGE_CURVE('',#66,#67,#57,.T.);
#79=EDGE_CURVE('',#67,#65,#21,.T.);
#80=EDGE_CURVE('',#67,#66,#58,.T.);
#81=EDGE_CURVE('',#66,#68,#22,.T.);
#82=EDGE_CURVE('',#68,#68,#59,.T.);
#83=ORIENTED_EDGE('',*,*,#69,.F.);
#84=ORIENTED_EDGE('',*,*,#70,.F.);
#85=ORIENTED_EDGE('',*,*,#71,.T.);
#86=ORIENTED_EDGE('',*,*,#69,.T.);
#87=ORIENTED_EDGE('',*,*,#71,.F.);
#88=ORIENTED_EDGE('',*,*,#72,.F.);
#89=ORIENTED_EDGE('',*,*,#70,.T.);
#90=ORIENTED_EDGE('',*,*,#73,.F.);
#91=ORIENTED_EDGE('',*,*,#74,.T.);
#92=ORIENTED_EDGE('',*,*,#72,.T.);
#93=ORIENTED_EDGE('',*,*,#74,.F.);
#94=ORIENTED_EDGE('',*,*,#73,.T.);
#95=ORIENTED_EDGE('',*,*,#75,.T.);
#96=ORIENTED_EDGE('',*,*,#76,.T.);
#97=ORIENTED_EDGE('',*,*,#77,.T.);
#98=ORIENTED_EDGE('',*,*,#75,.F.);
#99=ORIENTED_EDGE('',*,*,#77,.F.);
#100=ORIENTED_EDGE('',*,*,#78,.T.);
#101=ORIENTED_EDGE('',*,*,#79,.T.);
#102=ORIENTED_EDGE('',*,*,#76,.F.);
#103=ORIENTED_EDGE('',*,*,#79,.F.);
#104=ORIENTED_EDGE('',*,*,#80,.T.);
#105=ORIENTED_EDGE('',*,*,#78,.F.);
#106=ORIENTED_EDGE('',*,*,#81,.T.);
#107=ORIENTED_EDGE('',*,*,#82,.T.);
#108=ORIENTED_EDGE('',*,*,#81,.F.);
#109=ORIENTED_EDGE('',*,*,#80,.F.);
#110=ORIENTED_EDGE('',*,*,#82,.F.);
#111=PLANE('',#157);
#112=PLANE('',#161);
#113=PLANE('',#165);
#114=PLANE('',#174);
#115=STYLED_ITEM('',(#270),#125);
#116=STYLED_ITEM('',(#270),#126);
#117=STYLED_ITEM('',(#270),#127);
#118=STYLED_ITEM('',(#270),#128);
#119=STYLED_ITEM('',(#270),#129);
#120=STYLED_ITEM('',(#270),#130);
#121=STYLED_ITEM('',(#270),#131);
#122=STYLED_ITEM('',(#270),#132);
#123=STYLED_ITEM('',(#270),#133);
#124=STYLED_ITEM('',(#270),#13);
#125=ADVANCED_FACE('',(#31),#111,.F.);
#126=ADVANCED_FACE('',(#32),#28,.T.);
#127=ADVANCED_FACE('',(#33,#16),#112,.F.);
#128=ADVANCED_FACE('',(#34),#14,.T.);
#129=ADVANCED_FACE('',(#35,#17),#113,.T.);
#130=ADVANCED_FACE('',(#36),#29,.F.);
#131=ADVANCED_FACE('',(#37),#30,.F.);
#132=ADVANCED_FACE('',(#38),#15,.F.);
#133=ADVANCED_FACE('',(#39),#114,.F.);
#134=CLOSED_SHELL('',(#125,#126,#127,#128,#129,#130,#131,#132,#133));
#135=DERIVED_UNIT_ELEMENT(#138,1.);
#136=DERIVED_UNIT_ELEMENT(#256,-3.);
#137=DIMENSIONAL_EXPONENTS(0.,1.,0.,0.,0.,0.,0.);
#138=(
CONVERSION_BASED_UNIT('gram',#140)
MASS_UNIT()
NAMED_UNIT(#137)
);
#139=(
MASS_UNIT()
NAMED_UNIT(*)
SI_UNIT(.KILO.,.GRAM.)
);
#140=MASS_MEASURE_WITH_UNIT(MASS_MEASURE(0.001),#139);
#141=DERIVED_UNIT((#135,#136));
#142=MEASURE_REPRESENTATION_ITEM('density measure',
POSITIVE_RATIO_MEASURE(1.06),#141);
#143=PROPERTY_DEFINITION_REPRESENTATION(#148,#145);
#144=PROPERTY_DEFINITION_REPRESENTATION(#149,#146);
#145=REPRESENTATION('material name',(#147),#253);
#146=REPRESENTATION('density',(#142),#253);
#147=DESCRIPTIVE_REPRESENTATION_ITEM('_ ACC.TECHN. INFO',
'_ ACC.TECHN. INFO');
#148=PROPERTY_DEFINITION('material property','material name',#263);
#149=PROPERTY_DEFINITION('material property','density of part',#263);
#150=DATE_TIME_ROLE('creation_date');
#151=APPLIED_DATE_AND_TIME_ASSIGNMENT(#152,#150,(#263));
#152=DATE_AND_TIME(#153,#154);
#153=CALENDAR_DATE(2022,21,4);
#154=LOCAL_TIME(0,0,0.,#155);
#155=COORDINATED_UNIVERSAL_TIME_OFFSET(0,0,.BEHIND.);
#156=AXIS2_PLACEMENT_3D('placement',#218,#175,#176);
#157=AXIS2_PLACEMENT_3D('',#219,#177,#178);
#158=AXIS2_PLACEMENT_3D('',#221,#179,#180);
#159=AXIS2_PLACEMENT_3D('',#222,#181,#182);
#160=AXIS2_PLACEMENT_3D('',#224,#183,#184);
#161=AXIS2_PLACEMENT_3D('',#226,#186,#187);
#162=AXIS2_PLACEMENT_3D('',#228,#188,#189);
#163=AXIS2_PLACEMENT_3D('',#229,#190,#191);
#164=AXIS2_PLACEMENT_3D('',#231,#192,#193);
#165=AXIS2_PLACEMENT_3D('',#233,#195,#196);
#166=AXIS2_PLACEMENT_3D('',#235,#197,#198);
#167=AXIS2_PLACEMENT_3D('',#236,#199,#200);
#168=AXIS2_PLACEMENT_3D('',#238,#201,#202);
#169=AXIS2_PLACEMENT_3D('',#240,#204,#205);
#170=AXIS2_PLACEMENT_3D('',#243,#206,#207);
#171=AXIS2_PLACEMENT_3D('',#245,#209,#210);
#172=AXIS2_PLACEMENT_3D('',#246,#211,#212);
#173=AXIS2_PLACEMENT_3D('',#249,#214,#215);
#174=AXIS2_PLACEMENT_3D('',#250,#216,#217);
#175=DIRECTION('axis',(0.,0.,1.));
#176=DIRECTION('refdir',(1.,0.,0.));
#177=DIRECTION('center_axis',(0.,0.,-1.));
#178=DIRECTION('ref_axis',(1.,0.,0.));
#179=DIRECTION('center_axis',(0.,0.,-1.));
#180=DIRECTION('ref_axis',(-1.,0.,0.));
#181=DIRECTION('center_axis',(0.,0.,-1.));
#182=DIRECTION('ref_axis',(1.,0.,0.));
#183=DIRECTION('center_axis',(0.,0.,-1.));
#184=DIRECTION('ref_axis',(-1.,0.,0.));
#185=DIRECTION('',(0.707106781186547,-8.65956056235493E-17,0.707106781186548));
#186=DIRECTION('center_axis',(0.,0.,-1.));
#187=DIRECTION('ref_axis',(-1.,0.,0.));
#188=DIRECTION('center_axis',(0.,0.,-1.));
#189=DIRECTION('ref_axis',(-1.,0.,0.));
#190=DIRECTION('center_axis',(0.,0.,-1.));
#191=DIRECTION('ref_axis',(-1.,0.,0.));
#192=DIRECTION('center_axis',(0.,0.,-1.));
#193=DIRECTION('ref_axis',(-1.,0.,0.));
#194=DIRECTION('',(0.,0.,1.));
#195=DIRECTION('center_axis',(0.,0.,-1.));
#196=DIRECTION('ref_axis',(-1.,0.,0.));
#197=DIRECTION('center_axis',(0.,0.,1.));
#198=DIRECTION('ref_axis',(-1.,0.,0.));
#199=DIRECTION('center_axis',(0.,0.,-1.));
#200=DIRECTION('ref_axis',(1.,0.,0.));
#201=DIRECTION('center_axis',(0.,0.,1.));
#202=DIRECTION('ref_axis',(-1.,0.,0.));
#203=DIRECTION('',(-0.0878938102963587,1.076388734443E-17,-0.996129850025381));
#204=DIRECTION('center_axis',(0.,0.,-1.));
#205=DIRECTION('ref_axis',(1.,0.,0.));
#206=DIRECTION('center_axis',(0.,0.,1.));
#207=DIRECTION('ref_axis',(-1.,0.,0.));
#208=DIRECTION('',(-0.92847669088527,1.13705600757557E-16,-0.371390676354077));
#209=DIRECTION('center_axis',(0.,0.,1.));
#210=DIRECTION('ref_axis',(-1.,0.,0.));
#211=DIRECTION('center_axis',(0.,0.,1.));
#212=DIRECTION('ref_axis',(-1.,0.,0.));
#213=DIRECTION('',(0.,0.,1.));
#214=DIRECTION('center_axis',(0.,0.,1.));
#215=DIRECTION('ref_axis',(-1.,0.,0.));
#216=DIRECTION('center_axis',(0.,0.,1.));
#217=DIRECTION('ref_axis',(-1.,0.,0.));
#218=CARTESIAN_POINT('',(0.,0.,0.));
#219=CARTESIAN_POINT('Origin',(-1.047073013271E-14,0.,303.));
#220=CARTESIAN_POINT('',(-21.,2.57175827820944E-15,303.));
#221=CARTESIAN_POINT('Origin',(-1.047073013271E-14,0.,303.));
#222=CARTESIAN_POINT('Origin',(-1.047073013271E-14,0.,301.5));
#223=CARTESIAN_POINT('',(-24.,2.93915231795365E-15,300.));
#224=CARTESIAN_POINT('Origin',(-1.047073013271E-14,0.,300.));
#225=CARTESIAN_POINT('',(-22.5,2.75545529808154E-15,301.5));
#226=CARTESIAN_POINT('Origin',(-1.047073013271E-14,0.,300.));
#227=CARTESIAN_POINT('',(28.5000000000003,-3.49024337756996E-15,300.));
#228=CARTESIAN_POINT('Origin',(2.7738250000689E-13,0.,300.));
#229=CARTESIAN_POINT('Origin',(2.7738250000689E-13,0.,300.));
#230=CARTESIAN_POINT('',(28.5000000000003,-3.49024337756996E-15,3.5527136788005E-14));
#231=CARTESIAN_POINT('Origin',(3.3249160596849E-13,0.,0.));
#232=CARTESIAN_POINT('',(28.5000000000003,-3.49024337756996E-15,300.));
#233=CARTESIAN_POINT('Origin',(4.475714355407E-14,0.,0.));
#234=CARTESIAN_POINT('',(-25.4,3.11060286983428E-15,-1.11022302462516E-15));
#235=CARTESIAN_POINT('Origin',(-1.047073013271E-14,0.,0.));
#236=CARTESIAN_POINT('Origin',(-1.047073013271E-14,0.,9.35000000000002));
#237=CARTESIAN_POINT('',(-23.75,2.90853614797496E-15,18.7));
#238=CARTESIAN_POINT('Origin',(-1.047073013271E-14,0.,18.7));
#239=CARTESIAN_POINT('',(-24.575,3.00956950890462E-15,9.35000000000002));
#240=CARTESIAN_POINT('Origin',(-1.047073013271E-14,0.,19.4500000000002));
#241=CARTESIAN_POINT('',(20.,0.,20.2000000000001));
#242=CARTESIAN_POINT('',(-20.,2.44929359829471E-15,20.2000000000001));
#243=CARTESIAN_POINT('Origin',(-1.047073013271E-14,0.,20.2000000000001));
#244=CARTESIAN_POINT('',(-21.875,2.67891487313484E-15,19.4500000000002));
#245=CARTESIAN_POINT('Origin',(-1.047073013271E-14,0.,20.2000000000001));
#246=CARTESIAN_POINT('Origin',(-1.047073013271E-14,0.,-1.03499999999997));
#247=CARTESIAN_POINT('',(20.,0.,20.7000000000002));
#248=CARTESIAN_POINT('',(20.,2.44929359829471E-15,-1.03499999999997));
#249=CARTESIAN_POINT('Origin',(-1.047073013271E-14,0.,20.7000000000002));
#250=CARTESIAN_POINT('Origin',(-1.047073013271E-14,0.,20.7000000000002));
#251=UNCERTAINTY_MEASURE_WITH_UNIT(LENGTH_MEASURE(0.01),#255,
'DISTANCE_ACCURACY_VALUE',
'Maximum model space distance between geometric entities at asserted c
onnectivities');
#252=UNCERTAINTY_MEASURE_WITH_UNIT(LENGTH_MEASURE(0.01),#255,
'DISTANCE_ACCURACY_VALUE',
'Maximum model space distance between geometric entities at asserted c
onnectivities');
#253=(
GEOMETRIC_REPRESENTATION_CONTEXT(3)
GLOBAL_UNCERTAINTY_ASSIGNED_CONTEXT((#251))
GLOBAL_UNIT_ASSIGNED_CONTEXT((#255,#257,#258))
REPRESENTATION_CONTEXT('','3D')
);
#254=(
GEOMETRIC_REPRESENTATION_CONTEXT(3)
GLOBAL_UNCERTAINTY_ASSIGNED_CONTEXT((#252))
GLOBAL_UNIT_ASSIGNED_CONTEXT((#255,#257,#258))
REPRESENTATION_CONTEXT('','3D')
);
#255=(
LENGTH_UNIT()
NAMED_UNIT(*)
SI_UNIT(.MILLI.,.METRE.)
);
#256=(
LENGTH_UNIT()
NAMED_UNIT(*)
SI_UNIT(.CENTI.,.METRE.)
);
#257=(
NAMED_UNIT(*)
PLANE_ANGLE_UNIT()
SI_UNIT($,.RADIAN.)
);
#258=(
NAMED_UNIT(*)
SI_UNIT($,.STERADIAN.)
SOLID_ANGLE_UNIT()
);
#259=SHAPE_DEFINITION_REPRESENTATION(#260,#261);
#260=PRODUCT_DEFINITION_SHAPE('',$,#263);
#261=SHAPE_REPRESENTATION('',(#156),#253);
#262=PRODUCT_DEFINITION_CONTEXT('part definition',#267,'design');
#263=PRODUCT_DEFINITION('ENG000025860','ENG000025860',#264,#262);
#264=PRODUCT_DEFINITION_FORMATION('00',$,#269);
#265=PRODUCT_RELATED_PRODUCT_CATEGORY('ENG000025860','ENG000025860',(#269));
#266=APPLICATION_PROTOCOL_DEFINITION('international standard',
'automotive_design',2009,#267);
#267=APPLICATION_CONTEXT(
'Core Data for Automotive Mechanical Design Process');
#268=PRODUCT_CONTEXT('part definition',#267,'mechanical');
#269=PRODUCT('ENG000025860','ENG000025860','SIMPLE',(#268));
#270=PRESENTATION_STYLE_ASSIGNMENT((#271));
#271=SURFACE_STYLE_USAGE(.BOTH.,#274);
#272=SURFACE_STYLE_RENDERING_WITH_PROPERTIES($,#278,(#273));
#273=SURFACE_STYLE_TRANSPARENT(0.);
#274=SURFACE_SIDE_STYLE('',(#275,#272));
#275=SURFACE_STYLE_FILL_AREA(#276);
#276=FILL_AREA_STYLE('',(#277));
#277=FILL_AREA_STYLE_COLOUR('',#278);
#278=COLOUR_RGB('',1.,1.,1.);
ENDSEC;
END-ISO-10303-21;
