ISO-10303-21;
HEADER;
/* Generated by software containing ST-Developer
 * from STEP Tools, Inc. (www.steptools.com) 
 */

FILE_DESCRIPTION(
/* description */ ('This is a sample STEP configuration'),
/* implementation_level */ '2;1');

FILE_NAME(
/* name */ '192-20903xxxxxxxx SIMPLE.ipt_Rev_00.1.stp',
/* time_stamp */ '2023-04-26T13:59:38+02:00',
/* author */ ('powerJobs'),
/* organization */ ('coolOrange'),
/* preprocessor_version */ 'ST-DEVELOPER v19.2',
/* originating_system */ 'Autodesk Inventor 2023',
/* authorisation */ '');

FILE_SCHEMA (('AUTOMOTIVE_DESIGN { 1 0 10303 214 3 1 1 }'));
ENDSEC;

DATA;
#10=MECHANICAL_DESIGN_GEOMETRIC_PRESENTATION_REPRESENTATION('',(#13),#245);
#11=SHAPE_REPRESENTATION_RELATIONSHIP('SRR','None',#252,#12);
#12=ADVANCED_BREP_SHAPE_REPRESENTATION('',(#14),#244);
#13=STYLED_ITEM('',(#261),#14);
#14=MANIFOLD_SOLID_BREP('Volumenk\X\F6rper1',#125);
#15=CYLINDRICAL_SURFACE('',#154,28.5);
#16=CYLINDRICAL_SURFACE('',#163,20.);
#17=FACE_BOUND('',#44,.T.);
#18=FACE_BOUND('',#47,.T.);
#19=LINE('',#216,#24);
#20=LINE('',#223,#25);
#21=LINE('',#230,#26);
#22=LINE('',#235,#27);
#23=LINE('',#239,#28);
#24=VECTOR('',#176,22.5);
#25=VECTOR('',#185,28.5);
#26=VECTOR('',#194,24.575);
#27=VECTOR('',#199,21.875);
#28=VECTOR('',#204,20.);
#29=CONICAL_SURFACE('',#150,22.5,0.785398163397448);
#30=CONICAL_SURFACE('',#158,24.575,0.0880073735277423);
#31=CONICAL_SURFACE('',#160,21.875,1.19028994968256);
#32=FACE_OUTER_BOUND('',#41,.T.);
#33=FACE_OUTER_BOUND('',#42,.T.);
#34=FACE_OUTER_BOUND('',#43,.T.);
#35=FACE_OUTER_BOUND('',#45,.T.);
#36=FACE_OUTER_BOUND('',#46,.T.);
#37=FACE_OUTER_BOUND('',#48,.T.);
#38=FACE_OUTER_BOUND('',#49,.T.);
#39=FACE_OUTER_BOUND('',#50,.T.);
#40=FACE_OUTER_BOUND('',#51,.T.);
#41=EDGE_LOOP('',(#84));
#42=EDGE_LOOP('',(#85,#86,#87,#88));
#43=EDGE_LOOP('',(#89));
#44=EDGE_LOOP('',(#90));
#45=EDGE_LOOP('',(#91,#92,#93,#94));
#46=EDGE_LOOP('',(#95));
#47=EDGE_LOOP('',(#96));
#48=EDGE_LOOP('',(#97,#98,#99,#100));
#49=EDGE_LOOP('',(#101,#102,#103,#104,#105));
#50=EDGE_LOOP('',(#106,#107,#108,#109,#110));
#51=EDGE_LOOP('',(#111));
#52=CIRCLE('',#149,21.);
#53=CIRCLE('',#151,24.);
#54=CIRCLE('',#153,28.5);
#55=CIRCLE('',#155,28.5);
#56=CIRCLE('',#157,25.4);
#57=CIRCLE('',#159,23.75);
#58=CIRCLE('',#161,20.);
#59=CIRCLE('',#162,20.);
#60=CIRCLE('',#164,20.);
#61=VERTEX_POINT('',#211);
#62=VERTEX_POINT('',#214);
#63=VERTEX_POINT('',#218);
#64=VERTEX_POINT('',#221);
#65=VERTEX_POINT('',#225);
#66=VERTEX_POINT('',#228);
#67=VERTEX_POINT('',#232);
#68=VERTEX_POINT('',#233);
#69=VERTEX_POINT('',#238);
#70=EDGE_CURVE('',#61,#61,#52,.T.);
#71=EDGE_CURVE('',#62,#62,#53,.T.);
#72=EDGE_CURVE('',#62,#61,#19,.T.);
#73=EDGE_CURVE('',#63,#63,#54,.T.);
#74=EDGE_CURVE('',#64,#64,#55,.T.);
#75=EDGE_CURVE('',#64,#63,#20,.T.);
#76=EDGE_CURVE('',#65,#65,#56,.T.);
#77=EDGE_CURVE('',#66,#66,#57,.T.);
#78=EDGE_CURVE('',#66,#65,#21,.T.);
#79=EDGE_CURVE('',#67,#68,#58,.T.);
#80=EDGE_CURVE('',#68,#66,#22,.T.);
#81=EDGE_CURVE('',#68,#67,#59,.T.);
#82=EDGE_CURVE('',#67,#69,#23,.T.);
#83=EDGE_CURVE('',#69,#69,#60,.T.);
#84=ORIENTED_EDGE('',*,*,#70,.F.);
#85=ORIENTED_EDGE('',*,*,#71,.F.);
#86=ORIENTED_EDGE('',*,*,#72,.T.);
#87=ORIENTED_EDGE('',*,*,#70,.T.);
#88=ORIENTED_EDGE('',*,*,#72,.F.);
#89=ORIENTED_EDGE('',*,*,#73,.F.);
#90=ORIENTED_EDGE('',*,*,#71,.T.);
#91=ORIENTED_EDGE('',*,*,#74,.F.);
#92=ORIENTED_EDGE('',*,*,#75,.T.);
#93=ORIENTED_EDGE('',*,*,#73,.T.);
#94=ORIENTED_EDGE('',*,*,#75,.F.);
#95=ORIENTED_EDGE('',*,*,#74,.T.);
#96=ORIENTED_EDGE('',*,*,#76,.T.);
#97=ORIENTED_EDGE('',*,*,#77,.T.);
#98=ORIENTED_EDGE('',*,*,#78,.T.);
#99=ORIENTED_EDGE('',*,*,#76,.F.);
#100=ORIENTED_EDGE('',*,*,#78,.F.);
#101=ORIENTED_EDGE('',*,*,#79,.T.);
#102=ORIENTED_EDGE('',*,*,#80,.T.);
#103=ORIENTED_EDGE('',*,*,#77,.F.);
#104=ORIENTED_EDGE('',*,*,#80,.F.);
#105=ORIENTED_EDGE('',*,*,#81,.T.);
#106=ORIENTED_EDGE('',*,*,#79,.F.);
#107=ORIENTED_EDGE('',*,*,#82,.T.);
#108=ORIENTED_EDGE('',*,*,#83,.T.);
#109=ORIENTED_EDGE('',*,*,#82,.F.);
#110=ORIENTED_EDGE('',*,*,#81,.F.);
#111=ORIENTED_EDGE('',*,*,#83,.F.);
#112=PLANE('',#148);
#113=PLANE('',#152);
#114=PLANE('',#156);
#115=PLANE('',#165);
#116=ADVANCED_FACE('',(#32),#112,.F.);
#117=ADVANCED_FACE('',(#33),#29,.T.);
#118=ADVANCED_FACE('',(#34,#17),#113,.F.);
#119=ADVANCED_FACE('',(#35),#15,.T.);
#120=ADVANCED_FACE('',(#36,#18),#114,.T.);
#121=ADVANCED_FACE('',(#37),#30,.F.);
#122=ADVANCED_FACE('',(#38),#31,.F.);
#123=ADVANCED_FACE('',(#39),#16,.F.);
#124=ADVANCED_FACE('',(#40),#115,.F.);
#125=CLOSED_SHELL('',(#116,#117,#118,#119,#120,#121,#122,#123,#124));
#126=DERIVED_UNIT_ELEMENT(#129,1.);
#127=DERIVED_UNIT_ELEMENT(#247,-3.);
#128=DIMENSIONAL_EXPONENTS(0.,1.,0.,0.,0.,0.,0.);
#129=(
CONVERSION_BASED_UNIT('gram',#131)
MASS_UNIT()
NAMED_UNIT(#128)
);
#130=(
MASS_UNIT()
NAMED_UNIT(*)
SI_UNIT(.KILO.,.GRAM.)
);
#131=MASS_MEASURE_WITH_UNIT(MASS_MEASURE(0.001),#130);
#132=DERIVED_UNIT((#126,#127));
#133=MEASURE_REPRESENTATION_ITEM('density measure',
POSITIVE_RATIO_MEASURE(1.06),#132);
#134=PROPERTY_DEFINITION_REPRESENTATION(#139,#136);
#135=PROPERTY_DEFINITION_REPRESENTATION(#140,#137);
#136=REPRESENTATION('material name',(#138),#244);
#137=REPRESENTATION('density',(#133),#244);
#138=DESCRIPTIVE_REPRESENTATION_ITEM('_ ACC.TECHN. INFO',
'_ ACC.TECHN. INFO');
#139=PROPERTY_DEFINITION('material property','material name',#254);
#140=PROPERTY_DEFINITION('material property','density of part',#254);
#141=DATE_TIME_ROLE('creation_date');
#142=APPLIED_DATE_AND_TIME_ASSIGNMENT(#143,#141,(#254));
#143=DATE_AND_TIME(#144,#145);
#144=CALENDAR_DATE(2022,21,4);
#145=LOCAL_TIME(0,0,0.,#146);
#146=COORDINATED_UNIVERSAL_TIME_OFFSET(0,0,.BEHIND.);
#147=AXIS2_PLACEMENT_3D('placement',#209,#166,#167);
#148=AXIS2_PLACEMENT_3D('',#210,#168,#169);
#149=AXIS2_PLACEMENT_3D('',#212,#170,#171);
#150=AXIS2_PLACEMENT_3D('',#213,#172,#173);
#151=AXIS2_PLACEMENT_3D('',#215,#174,#175);
#152=AXIS2_PLACEMENT_3D('',#217,#177,#178);
#153=AXIS2_PLACEMENT_3D('',#219,#179,#180);
#154=AXIS2_PLACEMENT_3D('',#220,#181,#182);
#155=AXIS2_PLACEMENT_3D('',#222,#183,#184);
#156=AXIS2_PLACEMENT_3D('',#224,#186,#187);
#157=AXIS2_PLACEMENT_3D('',#226,#188,#189);
#158=AXIS2_PLACEMENT_3D('',#227,#190,#191);
#159=AXIS2_PLACEMENT_3D('',#229,#192,#193);
#160=AXIS2_PLACEMENT_3D('',#231,#195,#196);
#161=AXIS2_PLACEMENT_3D('',#234,#197,#198);
#162=AXIS2_PLACEMENT_3D('',#236,#200,#201);
#163=AXIS2_PLACEMENT_3D('',#237,#202,#203);
#164=AXIS2_PLACEMENT_3D('',#240,#205,#206);
#165=AXIS2_PLACEMENT_3D('',#241,#207,#208);
#166=DIRECTION('axis',(0.,0.,1.));
#167=DIRECTION('refdir',(1.,0.,0.));
#168=DIRECTION('center_axis',(0.,0.,-1.));
#169=DIRECTION('ref_axis',(1.,0.,0.));
#170=DIRECTION('center_axis',(0.,0.,-1.));
#171=DIRECTION('ref_axis',(-1.,0.,0.));
#172=DIRECTION('center_axis',(0.,0.,-1.));
#173=DIRECTION('ref_axis',(1.,0.,0.));
#174=DIRECTION('center_axis',(0.,0.,-1.));
#175=DIRECTION('ref_axis',(-1.,0.,0.));
#176=DIRECTION('',(0.707106781186547,-8.65956056235493E-17,0.707106781186548));
#177=DIRECTION('center_axis',(0.,0.,-1.));
#178=DIRECTION('ref_axis',(-1.,0.,0.));
#179=DIRECTION('center_axis',(0.,0.,-1.));
#180=DIRECTION('ref_axis',(-1.,0.,0.));
#181=DIRECTION('center_axis',(0.,0.,-1.));
#182=DIRECTION('ref_axis',(-1.,0.,0.));
#183=DIRECTION('center_axis',(0.,0.,-1.));
#184=DIRECTION('ref_axis',(-1.,0.,0.));
#185=DIRECTION('',(0.,0.,1.));
#186=DIRECTION('center_axis',(0.,0.,-1.));
#187=DIRECTION('ref_axis',(-1.,0.,0.));
#188=DIRECTION('center_axis',(0.,0.,1.));
#189=DIRECTION('ref_axis',(-1.,0.,0.));
#190=DIRECTION('center_axis',(0.,0.,-1.));
#191=DIRECTION('ref_axis',(1.,0.,0.));
#192=DIRECTION('center_axis',(0.,0.,1.));
#193=DIRECTION('ref_axis',(-1.,0.,0.));
#194=DIRECTION('',(-0.0878938102963587,1.076388734443E-17,-0.996129850025381));
#195=DIRECTION('center_axis',(0.,0.,-1.));
#196=DIRECTION('ref_axis',(1.,0.,0.));
#197=DIRECTION('center_axis',(0.,0.,1.));
#198=DIRECTION('ref_axis',(-1.,0.,0.));
#199=DIRECTION('',(-0.92847669088527,1.13705600757557E-16,-0.371390676354077));
#200=DIRECTION('center_axis',(0.,0.,1.));
#201=DIRECTION('ref_axis',(-1.,0.,0.));
#202=DIRECTION('center_axis',(0.,0.,1.));
#203=DIRECTION('ref_axis',(-1.,0.,0.));
#204=DIRECTION('',(0.,0.,1.));
#205=DIRECTION('center_axis',(0.,0.,1.));
#206=DIRECTION('ref_axis',(-1.,0.,0.));
#207=DIRECTION('center_axis',(0.,0.,1.));
#208=DIRECTION('ref_axis',(-1.,0.,0.));
#209=CARTESIAN_POINT('',(0.,0.,0.));
#210=CARTESIAN_POINT('Origin',(-1.047073013271E-14,0.,603.));
#211=CARTESIAN_POINT('',(-21.,2.57175827820944E-15,603.));
#212=CARTESIAN_POINT('Origin',(-1.047073013271E-14,0.,603.));
#213=CARTESIAN_POINT('Origin',(-1.047073013271E-14,0.,601.5));
#214=CARTESIAN_POINT('',(-24.,2.93915231795365E-15,600.));
#215=CARTESIAN_POINT('Origin',(-1.047073013271E-14,0.,600.));
#216=CARTESIAN_POINT('',(-22.5,2.75545529808154E-15,601.5));
#217=CARTESIAN_POINT('Origin',(-1.047073013271E-14,0.,600.));
#218=CARTESIAN_POINT('',(28.5000000000003,-3.49024337756996E-15,600.));
#219=CARTESIAN_POINT('Origin',(2.7738250000689E-13,0.,600.));
#220=CARTESIAN_POINT('Origin',(2.7738250000689E-13,0.,600.));
#221=CARTESIAN_POINT('',(28.5000000000003,-3.49024337756996E-15,7.105427357601E-14));
#222=CARTESIAN_POINT('Origin',(3.8760071193009E-13,0.,0.));
#223=CARTESIAN_POINT('',(28.5000000000003,-3.49024337756996E-15,600.));
#224=CARTESIAN_POINT('Origin',(9.986624951569E-14,0.,0.));
#225=CARTESIAN_POINT('',(-25.4,3.11060286983428E-15,-1.11022302462516E-15));
#226=CARTESIAN_POINT('Origin',(-1.047073013271E-14,0.,0.));
#227=CARTESIAN_POINT('Origin',(-1.047073013271E-14,0.,9.35000000000002));
#228=CARTESIAN_POINT('',(-23.75,2.90853614797497E-15,18.6999999999998));
#229=CARTESIAN_POINT('Origin',(-1.047073013271E-14,0.,18.6999999999998));
#230=CARTESIAN_POINT('',(-24.575,3.00956950890462E-15,9.35000000000002));
#231=CARTESIAN_POINT('Origin',(-1.047073013271E-14,0.,19.4499999999999));
#232=CARTESIAN_POINT('',(20.,0.,20.1999999999998));
#233=CARTESIAN_POINT('',(-20.,2.44929359829471E-15,20.1999999999999));
#234=CARTESIAN_POINT('Origin',(-1.047073013271E-14,0.,20.1999999999998));
#235=CARTESIAN_POINT('',(-21.875,2.67891487313484E-15,19.4499999999999));
#236=CARTESIAN_POINT('Origin',(-1.047073013271E-14,0.,20.1999999999998));
#237=CARTESIAN_POINT('Origin',(-1.047073013271E-14,0.,-1.03499999999968));
#238=CARTESIAN_POINT('',(20.,0.,20.6999999999999));
#239=CARTESIAN_POINT('',(20.,2.44929359829471E-15,-1.03499999999968));
#240=CARTESIAN_POINT('Origin',(-1.047073013271E-14,0.,20.6999999999999));
#241=CARTESIAN_POINT('Origin',(-1.047073013271E-14,0.,20.6999999999999));
#242=UNCERTAINTY_MEASURE_WITH_UNIT(LENGTH_MEASURE(0.01),#246,
'DISTANCE_ACCURACY_VALUE',
'Maximum model space distance between geometric entities at asserted c
onnectivities');
#243=UNCERTAINTY_MEASURE_WITH_UNIT(LENGTH_MEASURE(0.01),#246,
'DISTANCE_ACCURACY_VALUE',
'Maximum model space distance between geometric entities at asserted c
onnectivities');
#244=(
GEOMETRIC_REPRESENTATION_CONTEXT(3)
GLOBAL_UNCERTAINTY_ASSIGNED_CONTEXT((#242))
GLOBAL_UNIT_ASSIGNED_CONTEXT((#246,#248,#249))
REPRESENTATION_CONTEXT('','3D')
);
#245=(
GEOMETRIC_REPRESENTATION_CONTEXT(3)
GLOBAL_UNCERTAINTY_ASSIGNED_CONTEXT((#243))
GLOBAL_UNIT_ASSIGNED_CONTEXT((#246,#248,#249))
REPRESENTATION_CONTEXT('','3D')
);
#246=(
LENGTH_UNIT()
NAMED_UNIT(*)
SI_UNIT(.MILLI.,.METRE.)
);
#247=(
LENGTH_UNIT()
NAMED_UNIT(*)
SI_UNIT(.CENTI.,.METRE.)
);
#248=(
NAMED_UNIT(*)
PLANE_ANGLE_UNIT()
SI_UNIT($,.RADIAN.)
);
#249=(
NAMED_UNIT(*)
SI_UNIT($,.STERADIAN.)
SOLID_ANGLE_UNIT()
);
#250=SHAPE_DEFINITION_REPRESENTATION(#251,#252);
#251=PRODUCT_DEFINITION_SHAPE('',$,#254);
#252=SHAPE_REPRESENTATION('',(#147),#244);
#253=PRODUCT_DEFINITION_CONTEXT('part definition',#258,'design');
#254=PRODUCT_DEFINITION('ENG000025861','ENG000025861',#255,#253);
#255=PRODUCT_DEFINITION_FORMATION('00',$,#260);
#256=PRODUCT_RELATED_PRODUCT_CATEGORY('ENG000025861','ENG000025861',(#260));
#257=APPLICATION_PROTOCOL_DEFINITION('international standard',
'automotive_design',2009,#258);
#258=APPLICATION_CONTEXT(
'Core Data for Automotive Mechanical Design Process');
#259=PRODUCT_CONTEXT('part definition',#258,'mechanical');
#260=PRODUCT('ENG000025861','ENG000025861','SIMPLE',(#259));
#261=PRESENTATION_STYLE_ASSIGNMENT((#262));
#262=SURFACE_STYLE_USAGE(.BOTH.,#265);
#263=SURFACE_STYLE_RENDERING_WITH_PROPERTIES($,#269,(#264));
#264=SURFACE_STYLE_TRANSPARENT(0.);
#265=SURFACE_SIDE_STYLE('',(#266,#263));
#266=SURFACE_STYLE_FILL_AREA(#267);
#267=FILL_AREA_STYLE('',(#268));
#268=FILL_AREA_STYLE_COLOUR('',#269);
#269=COLOUR_RGB('',1.,1.,1.);
ENDSEC;
END-ISO-10303-21;
