ISO-10303-21;
HEADER;
/* Generated by software containing ST-Developer
 * from STEP Tools, Inc. (www.steptools.com) 
 */

FILE_DESCRIPTION(
/* description */ ('This is a sample STEP configuration'),
/* implementation_level */ '2;1');

FILE_NAME(
/* name */ 'C:\\_JPTemp\\Daten\\636-01100xxxxxxxx _Simple.ipt_Rev_00.s
tp',
/* time_stamp */ '2022-05-09T09:14:17+02:00',
/* author */ ('powerJobs'),
/* organization */ ('coolOrange'),
/* preprocessor_version */ 'ST-DEVELOPER v18.1',
/* originating_system */ 'Autodesk Inventor 2020',
/* authorisation */ '');

FILE_SCHEMA (('AUTOMOTIVE_DESIGN { 1 0 10303 214 3 1 1 }'));
ENDSEC;

DATA;
#10=MECHANICAL_DESIGN_GEOMETRIC_PRESENTATION_REPRESENTATION('',(#13),#576);
#11=SHAPE_REPRESENTATION_RELATIONSHIP('SRR','None',#583,#12);
#12=ADVANCED_BREP_SHAPE_REPRESENTATION('',(#14),#575);
#13=STYLED_ITEM('',(#592),#14);
#14=MANIFOLD_SOLID_BREP('Volumenk\X\F6rper1',#299);
#15=CYLINDRICAL_SURFACE('',#339,11.9000072479);
#16=CYLINDRICAL_SURFACE('',#346,19.75);
#17=CYLINDRICAL_SURFACE('',#359,17.75);
#18=CYLINDRICAL_SURFACE('',#367,19.75);
#19=CYLINDRICAL_SURFACE('',#368,17.25);
#20=FACE_BOUND('',#49,.T.);
#21=FACE_BOUND('',#52,.T.);
#22=FACE_BOUND('',#55,.T.);
#23=FACE_BOUND('',#59,.T.);
#24=FACE_BOUND('',#61,.T.);
#25=FACE_BOUND('',#64,.T.);
#26=PLANE('',#323);
#27=PLANE('',#336);
#28=PLANE('',#342);
#29=PLANE('',#343);
#30=PLANE('',#350);
#31=PLANE('',#353);
#32=PLANE('',#360);
#33=FACE_OUTER_BOUND('',#47,.T.);
#34=FACE_OUTER_BOUND('',#48,.T.);
#35=FACE_OUTER_BOUND('',#50,.T.);
#36=FACE_OUTER_BOUND('',#51,.T.);
#37=FACE_OUTER_BOUND('',#53,.T.);
#38=FACE_OUTER_BOUND('',#54,.T.);
#39=FACE_OUTER_BOUND('',#56,.T.);
#40=FACE_OUTER_BOUND('',#57,.T.);
#41=FACE_OUTER_BOUND('',#58,.T.);
#42=FACE_OUTER_BOUND('',#60,.T.);
#43=FACE_OUTER_BOUND('',#62,.T.);
#44=FACE_OUTER_BOUND('',#63,.T.);
#45=FACE_OUTER_BOUND('',#65,.T.);
#46=FACE_OUTER_BOUND('',#66,.T.);
#47=EDGE_LOOP('',(#197,#198,#199,#200,#201));
#48=EDGE_LOOP('',(#202,#203));
#49=EDGE_LOOP('',(#204,#205,#206,#207,#208,#209,#210));
#50=EDGE_LOOP('',(#211,#212,#213,#214,#215,#216,#217,#218,#219,#220,#221));
#51=EDGE_LOOP('',(#222,#223));
#52=EDGE_LOOP('',(#224,#225));
#53=EDGE_LOOP('',(#226,#227,#228,#229,#230,#231));
#54=EDGE_LOOP('',(#232,#233));
#55=EDGE_LOOP('',(#234,#235,#236));
#56=EDGE_LOOP('',(#237,#238));
#57=EDGE_LOOP('',(#239,#240,#241,#242,#243,#244,#245));
#58=EDGE_LOOP('',(#246,#247,#248));
#59=EDGE_LOOP('',(#249,#250));
#60=EDGE_LOOP('',(#251,#252,#253));
#61=EDGE_LOOP('',(#254,#255));
#62=EDGE_LOOP('',(#256,#257,#258,#259,#260,#261));
#63=EDGE_LOOP('',(#262,#263,#264));
#64=EDGE_LOOP('',(#265,#266,#267));
#65=EDGE_LOOP('',(#268,#269,#270,#271,#272,#273,#274,#275));
#66=EDGE_LOOP('',(#276,#277,#278,#279,#280,#281,#282));
#67=LINE('',#487,#74);
#68=LINE('',#511,#75);
#69=LINE('',#522,#76);
#70=LINE('',#532,#77);
#71=LINE('',#555,#78);
#72=LINE('',#570,#79);
#73=LINE('',#572,#80);
#74=VECTOR('',#379,5.95004968476877);
#75=VECTOR('',#404,13.5500001907);
#76=VECTOR('',#417,11.9000072479);
#77=VECTOR('',#430,19.75);
#78=VECTOR('',#457,17.75);
#79=VECTOR('',#474,19.75);
#80=VECTOR('',#477,17.25);
#81=CIRCLE('',#320,7.08000257219);
#82=CIRCLE('',#321,7.08000257219);
#83=CIRCLE('',#322,7.08000257219);
#84=CIRCLE('',#324,17.75);
#85=CIRCLE('',#325,17.75);
#86=CIRCLE('',#326,13.3436092324);
#87=CIRCLE('',#327,13.343382049);
#88=CIRCLE('',#328,13.3433728206348);
#89=CIRCLE('',#329,13.3436097357);
#90=CIRCLE('',#330,13.3433776897);
#91=CIRCLE('',#331,13.3433728206348);
#92=CIRCLE('',#332,13.3436092324);
#93=CIRCLE('',#334,13.5500001907);
#94=CIRCLE('',#335,13.5500001907);
#95=CIRCLE('',#337,11.9000090672);
#96=CIRCLE('',#338,11.9000090672);
#97=CIRCLE('',#340,11.9000073982);
#98=CIRCLE('',#341,11.9000073982);
#99=CIRCLE('',#344,19.75);
#100=CIRCLE('',#345,19.75);
#101=CIRCLE('',#347,19.75);
#102=CIRCLE('',#348,19.75);
#103=CIRCLE('',#349,19.75);
#104=CIRCLE('',#351,17.25);
#105=CIRCLE('',#352,17.25);
#106=CIRCLE('',#354,19.75);
#107=CIRCLE('',#355,19.75);
#108=CIRCLE('',#356,19.75);
#109=CIRCLE('',#357,17.75);
#110=CIRCLE('',#358,17.75);
#111=CIRCLE('',#361,19.75);
#112=CIRCLE('',#362,19.75);
#113=CIRCLE('',#363,19.75);
#114=CIRCLE('',#364,17.25);
#115=CIRCLE('',#365,17.25);
#116=CIRCLE('',#366,17.25);
#117=VERTEX_POINT('',#480);
#118=VERTEX_POINT('',#481);
#119=VERTEX_POINT('',#483);
#120=VERTEX_POINT('',#486);
#121=VERTEX_POINT('',#489);
#122=VERTEX_POINT('',#490);
#123=VERTEX_POINT('',#493);
#124=VERTEX_POINT('',#494);
#125=VERTEX_POINT('',#496);
#126=VERTEX_POINT('',#498);
#127=VERTEX_POINT('',#500);
#128=VERTEX_POINT('',#502);
#129=VERTEX_POINT('',#504);
#130=VERTEX_POINT('',#508);
#131=VERTEX_POINT('',#509);
#132=VERTEX_POINT('',#514);
#133=VERTEX_POINT('',#515);
#134=VERTEX_POINT('',#519);
#135=VERTEX_POINT('',#520);
#136=VERTEX_POINT('',#526);
#137=VERTEX_POINT('',#527);
#138=VERTEX_POINT('',#531);
#139=VERTEX_POINT('',#533);
#140=VERTEX_POINT('',#535);
#141=VERTEX_POINT('',#539);
#142=VERTEX_POINT('',#540);
#143=VERTEX_POINT('',#544);
#144=VERTEX_POINT('',#545);
#145=VERTEX_POINT('',#547);
#146=VERTEX_POINT('',#550);
#147=VERTEX_POINT('',#551);
#148=VERTEX_POINT('',#557);
#149=VERTEX_POINT('',#558);
#150=VERTEX_POINT('',#560);
#151=VERTEX_POINT('',#563);
#152=VERTEX_POINT('',#564);
#153=VERTEX_POINT('',#566);
#154=EDGE_CURVE('',#117,#118,#81,.T.);
#155=EDGE_CURVE('',#119,#117,#82,.T.);
#156=EDGE_CURVE('',#118,#119,#83,.T.);
#157=EDGE_CURVE('',#118,#120,#67,.T.);
#158=EDGE_CURVE('',#121,#122,#84,.T.);
#159=EDGE_CURVE('',#122,#121,#85,.T.);
#160=EDGE_CURVE('',#123,#124,#86,.T.);
#161=EDGE_CURVE('',#125,#123,#87,.T.);
#162=EDGE_CURVE('',#126,#125,#88,.T.);
#163=EDGE_CURVE('',#127,#126,#89,.T.);
#164=EDGE_CURVE('',#128,#127,#90,.T.);
#165=EDGE_CURVE('',#129,#128,#91,.T.);
#166=EDGE_CURVE('',#124,#129,#92,.T.);
#167=EDGE_CURVE('',#130,#131,#93,.T.);
#168=EDGE_CURVE('',#131,#123,#68,.T.);
#169=EDGE_CURVE('',#131,#130,#94,.T.);
#170=EDGE_CURVE('',#132,#133,#95,.T.);
#171=EDGE_CURVE('',#133,#132,#96,.T.);
#172=EDGE_CURVE('',#134,#135,#97,.T.);
#173=EDGE_CURVE('',#135,#133,#69,.T.);
#174=EDGE_CURVE('',#135,#134,#98,.T.);
#175=EDGE_CURVE('',#136,#137,#99,.T.);
#176=EDGE_CURVE('',#137,#136,#100,.T.);
#177=EDGE_CURVE('',#137,#138,#70,.T.);
#178=EDGE_CURVE('',#138,#139,#101,.T.);
#179=EDGE_CURVE('',#139,#140,#102,.T.);
#180=EDGE_CURVE('',#140,#138,#103,.T.);
#181=EDGE_CURVE('',#141,#142,#104,.T.);
#182=EDGE_CURVE('',#142,#141,#105,.T.);
#183=EDGE_CURVE('',#143,#144,#106,.T.);
#184=EDGE_CURVE('',#145,#143,#107,.T.);
#185=EDGE_CURVE('',#144,#145,#108,.T.);
#186=EDGE_CURVE('',#146,#147,#109,.T.);
#187=EDGE_CURVE('',#147,#146,#110,.T.);
#188=EDGE_CURVE('',#122,#147,#71,.T.);
#189=EDGE_CURVE('',#148,#149,#111,.T.);
#190=EDGE_CURVE('',#149,#150,#112,.T.);
#191=EDGE_CURVE('',#150,#148,#113,.T.);
#192=EDGE_CURVE('',#151,#152,#114,.T.);
#193=EDGE_CURVE('',#153,#151,#115,.T.);
#194=EDGE_CURVE('',#152,#153,#116,.T.);
#195=EDGE_CURVE('',#149,#144,#72,.T.);
#196=EDGE_CURVE('',#141,#152,#73,.T.);
#197=ORIENTED_EDGE('',*,*,#154,.F.);
#198=ORIENTED_EDGE('',*,*,#155,.F.);
#199=ORIENTED_EDGE('',*,*,#156,.F.);
#200=ORIENTED_EDGE('',*,*,#157,.T.);
#201=ORIENTED_EDGE('',*,*,#157,.F.);
#202=ORIENTED_EDGE('',*,*,#158,.F.);
#203=ORIENTED_EDGE('',*,*,#159,.F.);
#204=ORIENTED_EDGE('',*,*,#160,.F.);
#205=ORIENTED_EDGE('',*,*,#161,.F.);
#206=ORIENTED_EDGE('',*,*,#162,.F.);
#207=ORIENTED_EDGE('',*,*,#163,.F.);
#208=ORIENTED_EDGE('',*,*,#164,.F.);
#209=ORIENTED_EDGE('',*,*,#165,.F.);
#210=ORIENTED_EDGE('',*,*,#166,.F.);
#211=ORIENTED_EDGE('',*,*,#167,.T.);
#212=ORIENTED_EDGE('',*,*,#168,.T.);
#213=ORIENTED_EDGE('',*,*,#160,.T.);
#214=ORIENTED_EDGE('',*,*,#166,.T.);
#215=ORIENTED_EDGE('',*,*,#165,.T.);
#216=ORIENTED_EDGE('',*,*,#164,.T.);
#217=ORIENTED_EDGE('',*,*,#163,.T.);
#218=ORIENTED_EDGE('',*,*,#162,.T.);
#219=ORIENTED_EDGE('',*,*,#161,.T.);
#220=ORIENTED_EDGE('',*,*,#168,.F.);
#221=ORIENTED_EDGE('',*,*,#169,.T.);
#222=ORIENTED_EDGE('',*,*,#167,.F.);
#223=ORIENTED_EDGE('',*,*,#169,.F.);
#224=ORIENTED_EDGE('',*,*,#170,.T.);
#225=ORIENTED_EDGE('',*,*,#171,.T.);
#226=ORIENTED_EDGE('',*,*,#172,.T.);
#227=ORIENTED_EDGE('',*,*,#173,.T.);
#228=ORIENTED_EDGE('',*,*,#170,.F.);
#229=ORIENTED_EDGE('',*,*,#171,.F.);
#230=ORIENTED_EDGE('',*,*,#173,.F.);
#231=ORIENTED_EDGE('',*,*,#174,.T.);
#232=ORIENTED_EDGE('',*,*,#172,.F.);
#233=ORIENTED_EDGE('',*,*,#174,.F.);
#234=ORIENTED_EDGE('',*,*,#155,.T.);
#235=ORIENTED_EDGE('',*,*,#154,.T.);
#236=ORIENTED_EDGE('',*,*,#156,.T.);
#237=ORIENTED_EDGE('',*,*,#175,.T.);
#238=ORIENTED_EDGE('',*,*,#176,.T.);
#239=ORIENTED_EDGE('',*,*,#175,.F.);
#240=ORIENTED_EDGE('',*,*,#176,.F.);
#241=ORIENTED_EDGE('',*,*,#177,.T.);
#242=ORIENTED_EDGE('',*,*,#178,.T.);
#243=ORIENTED_EDGE('',*,*,#179,.T.);
#244=ORIENTED_EDGE('',*,*,#180,.T.);
#245=ORIENTED_EDGE('',*,*,#177,.F.);
#246=ORIENTED_EDGE('',*,*,#180,.F.);
#247=ORIENTED_EDGE('',*,*,#179,.F.);
#248=ORIENTED_EDGE('',*,*,#178,.F.);
#249=ORIENTED_EDGE('',*,*,#181,.T.);
#250=ORIENTED_EDGE('',*,*,#182,.T.);
#251=ORIENTED_EDGE('',*,*,#183,.F.);
#252=ORIENTED_EDGE('',*,*,#184,.F.);
#253=ORIENTED_EDGE('',*,*,#185,.F.);
#254=ORIENTED_EDGE('',*,*,#186,.T.);
#255=ORIENTED_EDGE('',*,*,#187,.T.);
#256=ORIENTED_EDGE('',*,*,#158,.T.);
#257=ORIENTED_EDGE('',*,*,#188,.T.);
#258=ORIENTED_EDGE('',*,*,#186,.F.);
#259=ORIENTED_EDGE('',*,*,#187,.F.);
#260=ORIENTED_EDGE('',*,*,#188,.F.);
#261=ORIENTED_EDGE('',*,*,#159,.T.);
#262=ORIENTED_EDGE('',*,*,#189,.T.);
#263=ORIENTED_EDGE('',*,*,#190,.T.);
#264=ORIENTED_EDGE('',*,*,#191,.T.);
#265=ORIENTED_EDGE('',*,*,#192,.F.);
#266=ORIENTED_EDGE('',*,*,#193,.F.);
#267=ORIENTED_EDGE('',*,*,#194,.F.);
#268=ORIENTED_EDGE('',*,*,#189,.F.);
#269=ORIENTED_EDGE('',*,*,#191,.F.);
#270=ORIENTED_EDGE('',*,*,#190,.F.);
#271=ORIENTED_EDGE('',*,*,#195,.T.);
#272=ORIENTED_EDGE('',*,*,#185,.T.);
#273=ORIENTED_EDGE('',*,*,#184,.T.);
#274=ORIENTED_EDGE('',*,*,#183,.T.);
#275=ORIENTED_EDGE('',*,*,#195,.F.);
#276=ORIENTED_EDGE('',*,*,#181,.F.);
#277=ORIENTED_EDGE('',*,*,#196,.T.);
#278=ORIENTED_EDGE('',*,*,#194,.T.);
#279=ORIENTED_EDGE('',*,*,#193,.T.);
#280=ORIENTED_EDGE('',*,*,#192,.T.);
#281=ORIENTED_EDGE('',*,*,#196,.F.);
#282=ORIENTED_EDGE('',*,*,#182,.F.);
#283=CONICAL_SURFACE('',#319,5.95004968476877,1.57079064755593);
#284=CONICAL_SURFACE('',#333,13.5500001907,0.00843354418177816);
#285=ADVANCED_FACE('',(#33),#283,.T.);
#286=ADVANCED_FACE('',(#34,#20),#26,.T.);
#287=ADVANCED_FACE('',(#35),#284,.T.);
#288=ADVANCED_FACE('',(#36,#21),#27,.T.);
#289=ADVANCED_FACE('',(#37),#15,.F.);
#290=ADVANCED_FACE('',(#38,#22),#28,.T.);
#291=ADVANCED_FACE('',(#39),#29,.T.);
#292=ADVANCED_FACE('',(#40),#16,.T.);
#293=ADVANCED_FACE('',(#41,#23),#30,.T.);
#294=ADVANCED_FACE('',(#42,#24),#31,.T.);
#295=ADVANCED_FACE('',(#43),#17,.F.);
#296=ADVANCED_FACE('',(#44,#25),#32,.T.);
#297=ADVANCED_FACE('',(#45),#18,.T.);
#298=ADVANCED_FACE('',(#46),#19,.T.);
#299=CLOSED_SHELL('',(#285,#286,#287,#288,#289,#290,#291,#292,#293,#294,
#295,#296,#297,#298));
#300=DERIVED_UNIT_ELEMENT(#302,1.);
#301=DERIVED_UNIT_ELEMENT(#578,3.);
#302=(
MASS_UNIT()
NAMED_UNIT(*)
SI_UNIT($,.GRAM.)
);
#303=DERIVED_UNIT((#300,#301));
#304=MEASURE_REPRESENTATION_ITEM('density measure',
POSITIVE_RATIO_MEASURE(1.06),#303);
#305=PROPERTY_DEFINITION_REPRESENTATION(#310,#307);
#306=PROPERTY_DEFINITION_REPRESENTATION(#311,#308);
#307=REPRESENTATION('material name',(#309),#575);
#308=REPRESENTATION('density',(#304),#575);
#309=DESCRIPTIVE_REPRESENTATION_ITEM('_ ACC.TECHN. INFO',
'_ ACC.TECHN. INFO');
#310=PROPERTY_DEFINITION('material property','material name',#585);
#311=PROPERTY_DEFINITION('material property','density of part',#585);
#312=DATE_TIME_ROLE('creation_date');
#313=APPLIED_DATE_AND_TIME_ASSIGNMENT(#314,#312,(#585));
#314=DATE_AND_TIME(#315,#316);
#315=CALENDAR_DATE(2022,9,5);
#316=LOCAL_TIME(5,18,48.,#317);
#317=COORDINATED_UNIVERSAL_TIME_OFFSET(0,0,.BEHIND.);
#318=AXIS2_PLACEMENT_3D('placement',#478,#369,#370);
#319=AXIS2_PLACEMENT_3D('',#479,#371,#372);
#320=AXIS2_PLACEMENT_3D('',#482,#373,#374);
#321=AXIS2_PLACEMENT_3D('',#484,#375,#376);
#322=AXIS2_PLACEMENT_3D('',#485,#377,#378);
#323=AXIS2_PLACEMENT_3D('',#488,#380,#381);
#324=AXIS2_PLACEMENT_3D('',#491,#382,#383);
#325=AXIS2_PLACEMENT_3D('',#492,#384,#385);
#326=AXIS2_PLACEMENT_3D('',#495,#386,#387);
#327=AXIS2_PLACEMENT_3D('',#497,#388,#389);
#328=AXIS2_PLACEMENT_3D('',#499,#390,#391);
#329=AXIS2_PLACEMENT_3D('',#501,#392,#393);
#330=AXIS2_PLACEMENT_3D('',#503,#394,#395);
#331=AXIS2_PLACEMENT_3D('',#505,#396,#397);
#332=AXIS2_PLACEMENT_3D('',#506,#398,#399);
#333=AXIS2_PLACEMENT_3D('',#507,#400,#401);
#334=AXIS2_PLACEMENT_3D('',#510,#402,#403);
#335=AXIS2_PLACEMENT_3D('',#512,#405,#406);
#336=AXIS2_PLACEMENT_3D('',#513,#407,#408);
#337=AXIS2_PLACEMENT_3D('',#516,#409,#410);
#338=AXIS2_PLACEMENT_3D('',#517,#411,#412);
#339=AXIS2_PLACEMENT_3D('',#518,#413,#414);
#340=AXIS2_PLACEMENT_3D('',#521,#415,#416);
#341=AXIS2_PLACEMENT_3D('',#523,#418,#419);
#342=AXIS2_PLACEMENT_3D('',#524,#420,#421);
#343=AXIS2_PLACEMENT_3D('',#525,#422,#423);
#344=AXIS2_PLACEMENT_3D('',#528,#424,#425);
#345=AXIS2_PLACEMENT_3D('',#529,#426,#427);
#346=AXIS2_PLACEMENT_3D('',#530,#428,#429);
#347=AXIS2_PLACEMENT_3D('',#534,#431,#432);
#348=AXIS2_PLACEMENT_3D('',#536,#433,#434);
#349=AXIS2_PLACEMENT_3D('',#537,#435,#436);
#350=AXIS2_PLACEMENT_3D('',#538,#437,#438);
#351=AXIS2_PLACEMENT_3D('',#541,#439,#440);
#352=AXIS2_PLACEMENT_3D('',#542,#441,#442);
#353=AXIS2_PLACEMENT_3D('',#543,#443,#444);
#354=AXIS2_PLACEMENT_3D('',#546,#445,#446);
#355=AXIS2_PLACEMENT_3D('',#548,#447,#448);
#356=AXIS2_PLACEMENT_3D('',#549,#449,#450);
#357=AXIS2_PLACEMENT_3D('',#552,#451,#452);
#358=AXIS2_PLACEMENT_3D('',#553,#453,#454);
#359=AXIS2_PLACEMENT_3D('',#554,#455,#456);
#360=AXIS2_PLACEMENT_3D('',#556,#458,#459);
#361=AXIS2_PLACEMENT_3D('',#559,#460,#461);
#362=AXIS2_PLACEMENT_3D('',#561,#462,#463);
#363=AXIS2_PLACEMENT_3D('',#562,#464,#465);
#364=AXIS2_PLACEMENT_3D('',#565,#466,#467);
#365=AXIS2_PLACEMENT_3D('',#567,#468,#469);
#366=AXIS2_PLACEMENT_3D('',#568,#470,#471);
#367=AXIS2_PLACEMENT_3D('',#569,#472,#473);
#368=AXIS2_PLACEMENT_3D('',#571,#475,#476);
#369=DIRECTION('axis',(0.,0.,1.));
#370=DIRECTION('refdir',(1.,0.,0.));
#371=DIRECTION('center_axis',(0.,-4.56206546871841E-12,1.));
#372=DIRECTION('ref_axis',(0.,-1.,-4.56194643767847E-12));
#373=DIRECTION('center_axis',(-1.08920686818984E-5,5.67924620363174E-6,
0.999999999924555));
#374=DIRECTION('ref_axis',(0.99947266912855,-0.0324712725727017,1.10707373101493E-5));
#375=DIRECTION('center_axis',(-1.08920686818984E-5,5.67924620363174E-6,
0.999999999924555));
#376=DIRECTION('ref_axis',(-0.999472669138236,0.032471272274573,-1.10707373085616E-5));
#377=DIRECTION('center_axis',(-1.08920686818984E-5,5.67924620363174E-6,
0.999999999924555));
#378=DIRECTION('ref_axis',(0.99947266912855,-0.0324712725727017,1.10707373101493E-5));
#379=DIRECTION('',(1.2246467991276E-16,-0.999999999983873,-5.6792553270268E-6));
#380=DIRECTION('center_axis',(0.,4.56206546871841E-12,-1.));
#381=DIRECTION('ref_axis',(-1.,0.,0.));
#382=DIRECTION('center_axis',(0.,-4.56206546871841E-12,1.));
#383=DIRECTION('ref_axis',(1.,0.,0.));
#384=DIRECTION('center_axis',(0.,-4.56206546871841E-12,1.));
#385=DIRECTION('ref_axis',(1.,0.,0.));
#386=DIRECTION('center_axis',(1.08928521884019E-5,-5.67935175185876E-6,
-0.999999999924545));
#387=DIRECTION('ref_axis',(0.072177522426744,-0.997391801257021,6.45075795736495E-6));
#388=DIRECTION('center_axis',(1.08905521975952E-5,-5.6795195567413E-6,-0.99999999992457));
#389=DIRECTION('ref_axis',(0.2875631832704,-0.95776166949504,8.57134799075374E-6));
#390=DIRECTION('center_axis',(0.,4.56206546871841E-12,-1.));
#391=DIRECTION('ref_axis',(-0.0721814073129988,0.997391520135556,4.55026458353968E-12));
#392=DIRECTION('center_axis',(1.08920687627449E-5,-5.67924604062119E-6,
-0.999999999924555));
#393=DIRECTION('ref_axis',(-0.0721774729985378,0.997391804833956,-6.45059545805917E-6));
#394=DIRECTION('center_axis',(1.09094776485942E-5,-5.67595881937037E-6,
-0.999999999924383));
#395=DIRECTION('ref_axis',(-0.28756106253319,0.957762306233274,-8.57336039388537E-6));
#396=DIRECTION('center_axis',(0.,4.56206546871841E-12,-1.));
#397=DIRECTION('ref_axis',(-0.0721814073129988,0.997391520135556,4.55026458353968E-12));
#398=DIRECTION('center_axis',(1.08928521884019E-5,-5.67935175185876E-6,
-0.999999999924545));
#399=DIRECTION('ref_axis',(0.072177522426744,-0.997391801257021,6.45075795736495E-6));
#400=DIRECTION('center_axis',(1.08968241381188E-5,-5.5328660341857E-6,-0.999999999925323));
#401=DIRECTION('ref_axis',(-0.0721813191829179,0.997391526493614,-6.30498084138565E-6));
#402=DIRECTION('center_axis',(-1.08972562265932E-5,5.51956596136133E-6,
0.999999999925392));
#403=DIRECTION('ref_axis',(0.0721812504222547,-0.997391531469911,6.29174592832798E-6));
#404=DIRECTION('',(-0.000619633564954572,0.00841697846344722,0.999964384629668));
#405=DIRECTION('center_axis',(-1.08972562265932E-5,5.51956596136133E-6,
0.999999999925392));
#406=DIRECTION('ref_axis',(0.0721812504222547,-0.997391531469911,6.29174592832798E-6));
#407=DIRECTION('center_axis',(1.08972562178822E-5,-5.51956596242605E-6,
-0.999999999925392));
#408=DIRECTION('ref_axis',(0.999472713884088,-0.0324698949584679,1.10707299738193E-5));
#409=DIRECTION('center_axis',(-1.08972559642615E-5,5.51956499758926E-6,
0.999999999925392));
#410=DIRECTION('ref_axis',(0.999472715368924,-0.0324698492529423,1.10707294529102E-5));
#411=DIRECTION('center_axis',(-1.08972559642615E-5,5.51956499758926E-6,
0.999999999925392));
#412=DIRECTION('ref_axis',(0.999472715368924,-0.0324698492529423,1.10707294529102E-5));
#413=DIRECTION('center_axis',(1.08981533542897E-5,-5.67944387653532E-6,
-0.999999999924487));
#414=DIRECTION('ref_axis',(-0.999472713884254,0.0324698949513155,-1.10768178562282E-5));
#415=DIRECTION('center_axis',(-1.08920686818984E-5,5.67924620363174E-6,
0.999999999924555));
#416=DIRECTION('ref_axis',(0.999472710835198,-0.0324699888078221,1.10707304736041E-5));
#417=DIRECTION('',(1.08981533542897E-5,-5.67944387653532E-6,-0.999999999924487));
#418=DIRECTION('center_axis',(-1.08920686818984E-5,5.67924620363174E-6,
0.999999999924555));
#419=DIRECTION('ref_axis',(0.999472710835198,-0.0324699888078221,1.10707304736041E-5));
#420=DIRECTION('center_axis',(1.08920686818984E-5,-5.67924620363174E-6,
-0.999999999924555));
#421=DIRECTION('ref_axis',(0.999472713884088,-0.0324698949584679,1.10707299738193E-5));
#422=DIRECTION('center_axis',(0.,0.,1.));
#423=DIRECTION('ref_axis',(1.,0.,0.));
#424=DIRECTION('center_axis',(0.,0.,1.));
#425=DIRECTION('ref_axis',(1.,0.,0.));
#426=DIRECTION('center_axis',(0.,0.,1.));
#427=DIRECTION('ref_axis',(1.,0.,0.));
#428=DIRECTION('center_axis',(0.,0.,1.));
#429=DIRECTION('ref_axis',(1.,0.,0.));
#430=DIRECTION('',(0.,0.,-1.));
#431=DIRECTION('center_axis',(0.,0.,1.));
#432=DIRECTION('ref_axis',(1.,0.,0.));
#433=DIRECTION('center_axis',(0.,0.,1.));
#434=DIRECTION('ref_axis',(1.,0.,0.));
#435=DIRECTION('center_axis',(0.,0.,1.));
#436=DIRECTION('ref_axis',(1.,0.,0.));
#437=DIRECTION('center_axis',(0.,0.,-1.));
#438=DIRECTION('ref_axis',(-1.,0.,0.));
#439=DIRECTION('center_axis',(0.,0.,1.));
#440=DIRECTION('ref_axis',(1.,0.,0.));
#441=DIRECTION('center_axis',(0.,0.,1.));
#442=DIRECTION('ref_axis',(1.,0.,0.));
#443=DIRECTION('center_axis',(0.,0.,-1.));
#444=DIRECTION('ref_axis',(-1.,0.,0.));
#445=DIRECTION('center_axis',(0.,0.,1.));
#446=DIRECTION('ref_axis',(1.,0.,0.));
#447=DIRECTION('center_axis',(0.,0.,1.));
#448=DIRECTION('ref_axis',(1.,0.,0.));
#449=DIRECTION('center_axis',(0.,0.,1.));
#450=DIRECTION('ref_axis',(1.,0.,0.));
#451=DIRECTION('center_axis',(0.,0.,1.));
#452=DIRECTION('ref_axis',(1.,0.,0.));
#453=DIRECTION('center_axis',(0.,0.,1.));
#454=DIRECTION('ref_axis',(1.,0.,0.));
#455=DIRECTION('center_axis',(0.,0.,1.));
#456=DIRECTION('ref_axis',(1.,0.,0.));
#457=DIRECTION('',(0.,0.,-1.));
#458=DIRECTION('center_axis',(0.,0.,1.));
#459=DIRECTION('ref_axis',(1.,0.,0.));
#460=DIRECTION('center_axis',(0.,0.,1.));
#461=DIRECTION('ref_axis',(1.,0.,0.));
#462=DIRECTION('center_axis',(0.,0.,1.));
#463=DIRECTION('ref_axis',(1.,0.,0.));
#464=DIRECTION('center_axis',(0.,0.,1.));
#465=DIRECTION('ref_axis',(1.,0.,0.));
#466=DIRECTION('center_axis',(0.,0.,1.));
#467=DIRECTION('ref_axis',(1.,0.,0.));
#468=DIRECTION('center_axis',(0.,0.,1.));
#469=DIRECTION('ref_axis',(1.,0.,0.));
#470=DIRECTION('center_axis',(0.,0.,1.));
#471=DIRECTION('ref_axis',(1.,0.,0.));
#472=DIRECTION('center_axis',(0.,0.,1.));
#473=DIRECTION('ref_axis',(1.,0.,0.));
#474=DIRECTION('',(0.,0.,-1.));
#475=DIRECTION('center_axis',(0.,0.,1.));
#476=DIRECTION('ref_axis',(1.,0.,0.));
#477=DIRECTION('',(0.,0.,-1.));
#478=CARTESIAN_POINT('',(0.,0.,0.));
#479=CARTESIAN_POINT('Origin',(0.,2.62312948088859E-10,-56.5001852177932));
#480=CARTESIAN_POINT('',(7.0765827269741,-0.229980124909451,-56.5001406248785));
#481=CARTESIAN_POINT('',(4.25220697560891E-9,7.07991922083609,-56.5002592182217));
#482=CARTESIAN_POINT('Origin',(0.000310975730038269,-8.33444103928298E-5,
-56.5002190057569));
#483=CARTESIAN_POINT('',(-7.07596133745529,0.229793926230587,-56.5002973865306));
#484=CARTESIAN_POINT('Origin',(0.000310342057143124,-0.000102849825146899,
-56.500219005653));
#485=CARTESIAN_POINT('Origin',(0.000310975730038269,-8.33444103928298E-5,
-56.5002190057569));
#486=CARTESIAN_POINT('',(0.,2.62313102249374E-10,-56.5002190096174));
#487=CARTESIAN_POINT('',(-7.28670930121979E-16,5.95004968503108,-56.500185217766));
#488=CARTESIAN_POINT('Origin',(0.,-17.75,-46.000034508601));
#489=CARTESIAN_POINT('',(0.,-17.75,-46.000034508601));
#490=CARTESIAN_POINT('',(-17.75,-2.17374806848655E-15,-46.00003450852));
#491=CARTESIAN_POINT('Origin',(0.,0.,-46.000034508601));
#492=CARTESIAN_POINT('Origin',(0.,0.,-46.000034508601));
#493=CARTESIAN_POINT('',(0.96333863871894,-13.3086046518417,-46.0000242111621));
#494=CARTESIAN_POINT('',(0.,-13.3434074344973,-46.000034508601));
#495=CARTESIAN_POINT('Origin',(0.000229984084111915,0.000201795705571431,
-46.0001102891463));
#496=CARTESIAN_POINT('',(3.83726096222041,-12.7798085196929,-45.9999959173162));
#497=CARTESIAN_POINT('Origin',(0.000195492421322398,-2.84778622321692E-5,
-46.0001102882242));
#498=CARTESIAN_POINT('',(4.65864844368319,12.5037399204087,-46.0001305594239));
#499=CARTESIAN_POINT('Origin',(0.000197449302143937,-3.76756110198606E-5,
-46.00003450852));
#500=CARTESIAN_POINT('',(-0.962946075964146,13.3085305862582,-46.0001963608218));
#501=CARTESIAN_POINT('Origin',(0.00016195543443175,-0.000276410985653793,
-46.0001102865914));
#502=CARTESIAN_POINT('',(-3.83686876633658,12.7797468099366,-46.0002246606919));
#503=CARTESIAN_POINT('Origin',(0.000168865058974372,-4.32581357476551E-5,
-46.0001103148202));
#504=CARTESIAN_POINT('',(-4.65825625782672,-12.5038142844118,-46.0000900184725));
#505=CARTESIAN_POINT('Origin',(0.000197449302143937,-3.76756110198606E-5,
-46.00003450852));
#506=CARTESIAN_POINT('Origin',(0.000229984084111915,0.000201795705571431,
-46.0001102891463));
#507=CARTESIAN_POINT('Origin',(0.000463196049616308,-0.000172608608796821,
-70.5001102857482));
#508=CARTESIAN_POINT('',(0.,-13.5501727166017,-70.5000355006764));
#509=CARTESIAN_POINT('',(0.978520084855383,-13.5148279843247,-70.5000250344098));
#510=CARTESIAN_POINT('Origin',(0.000464247092892653,-0.000172534061015467,
-70.5001102857372));
#511=CARTESIAN_POINT('',(0.97852008474313,-13.5148279827998,-70.5000248532566));
#512=CARTESIAN_POINT('Origin',(0.000464247092892653,-0.000172534061015467,
-70.5001102857372));
#513=CARTESIAN_POINT('Origin',(-14.0511345213117,-13.2576847352811,-70.5001902339402));
#514=CARTESIAN_POINT('',(0.694662943218708,-11.8798897322536,-70.5000446080277));
#515=CARTESIAN_POINT('',(11.8941957352416,-0.386564593875079,-70.4999804240097));
#516=CARTESIAN_POINT('Origin',(0.000463196338618882,-0.000173153003178122,
-70.5001102857451));
#517=CARTESIAN_POINT('Origin',(0.000463196338618882,-0.000173153003178122,
-70.5001102857451));
#518=CARTESIAN_POINT('Origin',(0.000310622967696254,-9.30970133898265E-5,
-56.5002199593054));
#519=CARTESIAN_POINT('',(9.90155582858622,6.60087548600342,-56.5001514258303));
#520=CARTESIAN_POINT('',(11.8940431622573,-0.386485082266721,-56.5000871104958));
#521=CARTESIAN_POINT('Origin',(0.000310509088252104,-9.19753181977911E-5,
-56.500219005713));
#522=CARTESIAN_POINT('',(11.8940431622686,-0.386485082272597,-56.5000881450926));
#523=CARTESIAN_POINT('Origin',(0.000310509088252104,-9.19753181977911E-5,
-56.500219005713));
#524=CARTESIAN_POINT('Origin',(-12.285451615484,-11.680952520226,-56.5002864845949));
#525=CARTESIAN_POINT('Origin',(3.49999999999998,0.,0.999999999999972));
#526=CARTESIAN_POINT('',(0.,-19.75,0.99999999999997));
#527=CARTESIAN_POINT('',(-19.75,-2.41867742831602E-15,0.99999999999997));
#528=CARTESIAN_POINT('Origin',(0.,0.,0.99999999999997));
#529=CARTESIAN_POINT('Origin',(0.,0.,0.99999999999997));
#530=CARTESIAN_POINT('Origin',(0.,0.,0.49999999999998));
#531=CARTESIAN_POINT('',(-19.75,-2.41867742831602E-15,-9.43689570931383E-15));
#532=CARTESIAN_POINT('',(-19.75,-2.41867742831602E-15,0.49999999999998));
#533=CARTESIAN_POINT('',(0.,-19.75,-9.43689570931383E-15));
#534=CARTESIAN_POINT('Origin',(0.,0.,-9.43689570931383E-15));
#535=CARTESIAN_POINT('',(19.75,0.,-9.43689570931383E-15));
#536=CARTESIAN_POINT('Origin',(0.,0.,-9.43689570931383E-15));
#537=CARTESIAN_POINT('Origin',(0.,0.,-9.43689570931383E-15));
#538=CARTESIAN_POINT('Origin',(19.75,0.,-9.43689570931383E-15));
#539=CARTESIAN_POINT('',(-17.25,-2.11251572852918E-15,-9.43689570931383E-15));
#540=CARTESIAN_POINT('',(0.,-17.25,-9.43689570931383E-15));
#541=CARTESIAN_POINT('Origin',(0.,0.,-9.43689570931383E-15));
#542=CARTESIAN_POINT('Origin',(0.,0.,-9.43689570931383E-15));
#543=CARTESIAN_POINT('Origin',(19.75,0.,-72.5));
#544=CARTESIAN_POINT('',(19.75,0.,-72.5));
#545=CARTESIAN_POINT('',(-19.75,-2.41867742831602E-15,-72.5));
#546=CARTESIAN_POINT('Origin',(0.,0.,-72.5));
#547=CARTESIAN_POINT('',(0.,-19.75,-72.5));
#548=CARTESIAN_POINT('Origin',(0.,0.,-72.5));
#549=CARTESIAN_POINT('Origin',(0.,0.,-72.5));
#550=CARTESIAN_POINT('',(0.,-17.75,-72.5));
#551=CARTESIAN_POINT('',(-17.75,-2.17374806848655E-15,-72.5));
#552=CARTESIAN_POINT('Origin',(0.,0.,-72.5));
#553=CARTESIAN_POINT('Origin',(0.,0.,-72.5));
#554=CARTESIAN_POINT('Origin',(0.,0.,-42.));
#555=CARTESIAN_POINT('',(-17.75,-2.17374806848655E-15,-42.));
#556=CARTESIAN_POINT('Origin',(17.25,0.,-1.00000000000001));
#557=CARTESIAN_POINT('',(19.75,0.,-1.00000000000001));
#558=CARTESIAN_POINT('',(-19.75,-2.41867742831602E-15,-1.00000000000001));
#559=CARTESIAN_POINT('Origin',(0.,0.,-1.00000000000001));
#560=CARTESIAN_POINT('',(0.,-19.75,-1.00000000000001));
#561=CARTESIAN_POINT('Origin',(0.,0.,-1.00000000000001));
#562=CARTESIAN_POINT('Origin',(0.,0.,-1.00000000000001));
#563=CARTESIAN_POINT('',(17.25,0.,-1.00000000000001));
#564=CARTESIAN_POINT('',(-17.25,-2.11251572852918E-15,-1.00000000000001));
#565=CARTESIAN_POINT('Origin',(0.,0.,-1.00000000000001));
#566=CARTESIAN_POINT('',(0.,-17.25,-1.00000000000001));
#567=CARTESIAN_POINT('Origin',(0.,0.,-1.00000000000001));
#568=CARTESIAN_POINT('Origin',(0.,0.,-1.00000000000001));
#569=CARTESIAN_POINT('Origin',(0.,0.,-36.75));
#570=CARTESIAN_POINT('',(-19.75,-2.41867742831602E-15,-36.75));
#571=CARTESIAN_POINT('Origin',(0.,0.,-0.250000000000012));
#572=CARTESIAN_POINT('',(-17.25,-2.11251572852918E-15,-0.250000000000012));
#573=UNCERTAINTY_MEASURE_WITH_UNIT(LENGTH_MEASURE(0.01),#577,
'DISTANCE_ACCURACY_VALUE',
'Maximum model space distance between geometric entities at asserted c
onnectivities');
#574=UNCERTAINTY_MEASURE_WITH_UNIT(LENGTH_MEASURE(0.01),#577,
'DISTANCE_ACCURACY_VALUE',
'Maximum model space distance between geometric entities at asserted c
onnectivities');
#575=(
GEOMETRIC_REPRESENTATION_CONTEXT(3)
GLOBAL_UNCERTAINTY_ASSIGNED_CONTEXT((#573))
GLOBAL_UNIT_ASSIGNED_CONTEXT((#577,#579,#580))
REPRESENTATION_CONTEXT('','3D')
);
#576=(
GEOMETRIC_REPRESENTATION_CONTEXT(3)
GLOBAL_UNCERTAINTY_ASSIGNED_CONTEXT((#574))
GLOBAL_UNIT_ASSIGNED_CONTEXT((#577,#579,#580))
REPRESENTATION_CONTEXT('','3D')
);
#577=(
LENGTH_UNIT()
NAMED_UNIT(*)
SI_UNIT(.MILLI.,.METRE.)
);
#578=(
LENGTH_UNIT()
NAMED_UNIT(*)
SI_UNIT(.CENTI.,.METRE.)
);
#579=(
NAMED_UNIT(*)
PLANE_ANGLE_UNIT()
SI_UNIT($,.RADIAN.)
);
#580=(
NAMED_UNIT(*)
SI_UNIT($,.STERADIAN.)
SOLID_ANGLE_UNIT()
);
#581=SHAPE_DEFINITION_REPRESENTATION(#582,#583);
#582=PRODUCT_DEFINITION_SHAPE('',$,#585);
#583=SHAPE_REPRESENTATION('',(#318),#575);
#584=PRODUCT_DEFINITION_CONTEXT('part definition',#589,'design');
#585=PRODUCT_DEFINITION('ENG000026001','ENG000026001',#586,#584);
#586=PRODUCT_DEFINITION_FORMATION('00',$,#591);
#587=PRODUCT_RELATED_PRODUCT_CATEGORY('ENG000026001','ENG000026001',(#591));
#588=APPLICATION_PROTOCOL_DEFINITION('international standard',
'automotive_design',2009,#589);
#589=APPLICATION_CONTEXT(
'Core Data for Automotive Mechanical Design Process');
#590=PRODUCT_CONTEXT('part definition',#589,'mechanical');
#591=PRODUCT('ENG000026001','ENG000026001','_Simple',(#590));
#592=PRESENTATION_STYLE_ASSIGNMENT((#593));
#593=SURFACE_STYLE_USAGE(.BOTH.,#596);
#594=SURFACE_STYLE_RENDERING_WITH_PROPERTIES($,#600,(#595));
#595=SURFACE_STYLE_TRANSPARENT(0.);
#596=SURFACE_SIDE_STYLE('',(#597,#594));
#597=SURFACE_STYLE_FILL_AREA(#598);
#598=FILL_AREA_STYLE('',(#599));
#599=FILL_AREA_STYLE_COLOUR('',#600);
#600=COLOUR_RGB('',1.,1.,1.);
ENDSEC;
END-ISO-10303-21;
