ISO-10303-21;
HEADER;
/* Generated by software containing ST-Developer
 * from STEP Tools, Inc. (www.steptools.com) 
 */

FILE_DESCRIPTION(
/* description */ ('This is a sample STEP configuration'),
/* implementation_level */ '2;1');

FILE_NAME(
/* name */ '636-01311xxxxxxxx SIMPLE.ipt_Rev_00.1.stp',
/* time_stamp */ '2023-04-27T16:17:35+02:00',
/* author */ ('powerJobs'),
/* organization */ ('coolOrange'),
/* preprocessor_version */ 'ST-DEVELOPER v19.2',
/* originating_system */ 'Autodesk Inventor 2023',
/* authorisation */ '');

FILE_SCHEMA (('AUTOMOTIVE_DESIGN { 1 0 10303 214 3 1 1 }'));
ENDSEC;

DATA;
#10=MECHANICAL_DESIGN_GEOMETRIC_PRESENTATION_REPRESENTATION('',(#13),#227);
#11=SHAPE_REPRESENTATION_RELATIONSHIP('SRR','None',#234,#12);
#12=ADVANCED_BREP_SHAPE_REPRESENTATION('',(#14),#226);
#13=STYLED_ITEM('',(#243),#14);
#14=MANIFOLD_SOLID_BREP('Volumenk\X\F6rper1',#112);
#15=SPHERICAL_SURFACE('',#149,90.);
#16=SPHERICAL_SURFACE('',#151,87.);
#17=FACE_BOUND('',#35,.T.);
#18=PLANE('',#138);
#19=PLANE('',#142);
#20=PLANE('',#147);
#21=FACE_OUTER_BOUND('',#29,.T.);
#22=FACE_OUTER_BOUND('',#30,.T.);
#23=FACE_OUTER_BOUND('',#31,.T.);
#24=FACE_OUTER_BOUND('',#32,.T.);
#25=FACE_OUTER_BOUND('',#33,.T.);
#26=FACE_OUTER_BOUND('',#34,.T.);
#27=FACE_OUTER_BOUND('',#36,.T.);
#28=FACE_OUTER_BOUND('',#37,.T.);
#29=EDGE_LOOP('',(#75,#76,#77,#78));
#30=EDGE_LOOP('',(#79));
#31=EDGE_LOOP('',(#80,#81,#82,#83));
#32=EDGE_LOOP('',(#84));
#33=EDGE_LOOP('',(#85,#86,#87,#88,#89));
#34=EDGE_LOOP('',(#90));
#35=EDGE_LOOP('',(#91));
#36=EDGE_LOOP('',(#92,#93,#94,#95));
#37=EDGE_LOOP('',(#96,#97,#98,#99,#100));
#38=LINE('',#199,#41);
#39=LINE('',#206,#42);
#40=LINE('',#213,#43);
#41=VECTOR('',#159,19.75);
#42=VECTOR('',#168,19.75);
#43=VECTOR('',#177,42.5);
#44=CIRCLE('',#136,19.75);
#45=CIRCLE('',#137,19.75);
#46=CIRCLE('',#140,19.75);
#47=CIRCLE('',#141,19.75);
#48=CIRCLE('',#144,42.5);
#49=CIRCLE('',#145,42.5);
#50=CIRCLE('',#146,42.5);
#51=CIRCLE('',#148,46.9585277053262);
#52=CIRCLE('',#150,90.);
#53=CIRCLE('',#152,87.);
#54=VERTEX_POINT('',#196);
#55=VERTEX_POINT('',#198);
#56=VERTEX_POINT('',#203);
#57=VERTEX_POINT('',#205);
#58=VERTEX_POINT('',#210);
#59=VERTEX_POINT('',#212);
#60=VERTEX_POINT('',#214);
#61=VERTEX_POINT('',#218);
#62=EDGE_CURVE('',#54,#54,#44,.T.);
#63=EDGE_CURVE('',#54,#55,#38,.T.);
#64=EDGE_CURVE('',#55,#55,#45,.T.);
#65=EDGE_CURVE('',#56,#56,#46,.T.);
#66=EDGE_CURVE('',#56,#57,#39,.T.);
#67=EDGE_CURVE('',#57,#57,#47,.T.);
#68=EDGE_CURVE('',#58,#58,#48,.T.);
#69=EDGE_CURVE('',#58,#59,#40,.T.);
#70=EDGE_CURVE('',#60,#59,#49,.T.);
#71=EDGE_CURVE('',#59,#60,#50,.T.);
#72=EDGE_CURVE('',#61,#61,#51,.T.);
#73=EDGE_CURVE('',#57,#61,#52,.T.);
#74=EDGE_CURVE('',#54,#60,#53,.T.);
#75=ORIENTED_EDGE('',*,*,#62,.T.);
#76=ORIENTED_EDGE('',*,*,#63,.T.);
#77=ORIENTED_EDGE('',*,*,#64,.T.);
#78=ORIENTED_EDGE('',*,*,#63,.F.);
#79=ORIENTED_EDGE('',*,*,#64,.F.);
#80=ORIENTED_EDGE('',*,*,#65,.F.);
#81=ORIENTED_EDGE('',*,*,#66,.T.);
#82=ORIENTED_EDGE('',*,*,#67,.F.);
#83=ORIENTED_EDGE('',*,*,#66,.F.);
#84=ORIENTED_EDGE('',*,*,#65,.T.);
#85=ORIENTED_EDGE('',*,*,#68,.T.);
#86=ORIENTED_EDGE('',*,*,#69,.T.);
#87=ORIENTED_EDGE('',*,*,#70,.F.);
#88=ORIENTED_EDGE('',*,*,#71,.F.);
#89=ORIENTED_EDGE('',*,*,#69,.F.);
#90=ORIENTED_EDGE('',*,*,#72,.T.);
#91=ORIENTED_EDGE('',*,*,#68,.F.);
#92=ORIENTED_EDGE('',*,*,#67,.T.);
#93=ORIENTED_EDGE('',*,*,#73,.T.);
#94=ORIENTED_EDGE('',*,*,#72,.F.);
#95=ORIENTED_EDGE('',*,*,#73,.F.);
#96=ORIENTED_EDGE('',*,*,#62,.F.);
#97=ORIENTED_EDGE('',*,*,#74,.T.);
#98=ORIENTED_EDGE('',*,*,#70,.T.);
#99=ORIENTED_EDGE('',*,*,#71,.T.);
#100=ORIENTED_EDGE('',*,*,#74,.F.);
#101=CYLINDRICAL_SURFACE('',#135,19.75);
#102=CYLINDRICAL_SURFACE('',#139,19.75);
#103=CYLINDRICAL_SURFACE('',#143,42.5);
#104=ADVANCED_FACE('',(#21),#101,.T.);
#105=ADVANCED_FACE('',(#22),#18,.T.);
#106=ADVANCED_FACE('',(#23),#102,.T.);
#107=ADVANCED_FACE('',(#24),#19,.T.);
#108=ADVANCED_FACE('',(#25),#103,.F.);
#109=ADVANCED_FACE('',(#26,#17),#20,.T.);
#110=ADVANCED_FACE('',(#27),#15,.T.);
#111=ADVANCED_FACE('',(#28),#16,.F.);
#112=CLOSED_SHELL('',(#104,#105,#106,#107,#108,#109,#110,#111));
#113=DERIVED_UNIT_ELEMENT(#116,1.);
#114=DERIVED_UNIT_ELEMENT(#229,-3.);
#115=DIMENSIONAL_EXPONENTS(0.,1.,0.,0.,0.,0.,0.);
#116=(
CONVERSION_BASED_UNIT('gram',#118)
MASS_UNIT()
NAMED_UNIT(#115)
);
#117=(
MASS_UNIT()
NAMED_UNIT(*)
SI_UNIT(.KILO.,.GRAM.)
);
#118=MASS_MEASURE_WITH_UNIT(MASS_MEASURE(0.001),#117);
#119=DERIVED_UNIT((#113,#114));
#120=MEASURE_REPRESENTATION_ITEM('density measure',
POSITIVE_RATIO_MEASURE(0.),#119);
#121=PROPERTY_DEFINITION_REPRESENTATION(#126,#123);
#122=PROPERTY_DEFINITION_REPRESENTATION(#127,#124);
#123=REPRESENTATION('material name',(#125),#226);
#124=REPRESENTATION('density',(#120),#226);
#125=DESCRIPTIVE_REPRESENTATION_ITEM('ACC.TECHN. INFO',
'ACC.TECHN. INFO');
#126=PROPERTY_DEFINITION('material property','material name',#236);
#127=PROPERTY_DEFINITION('material property','density of part',#236);
#128=DATE_TIME_ROLE('creation_date');
#129=APPLIED_DATE_AND_TIME_ASSIGNMENT(#130,#128,(#236));
#130=DATE_AND_TIME(#131,#132);
#131=CALENDAR_DATE(2022,9,5);
#132=LOCAL_TIME(0,0,0.,#133);
#133=COORDINATED_UNIVERSAL_TIME_OFFSET(0,0,.BEHIND.);
#134=AXIS2_PLACEMENT_3D('placement',#194,#153,#154);
#135=AXIS2_PLACEMENT_3D('',#195,#155,#156);
#136=AXIS2_PLACEMENT_3D('',#197,#157,#158);
#137=AXIS2_PLACEMENT_3D('',#200,#160,#161);
#138=AXIS2_PLACEMENT_3D('',#201,#162,#163);
#139=AXIS2_PLACEMENT_3D('',#202,#164,#165);
#140=AXIS2_PLACEMENT_3D('',#204,#166,#167);
#141=AXIS2_PLACEMENT_3D('',#207,#169,#170);
#142=AXIS2_PLACEMENT_3D('',#208,#171,#172);
#143=AXIS2_PLACEMENT_3D('',#209,#173,#174);
#144=AXIS2_PLACEMENT_3D('',#211,#175,#176);
#145=AXIS2_PLACEMENT_3D('',#215,#178,#179);
#146=AXIS2_PLACEMENT_3D('',#216,#180,#181);
#147=AXIS2_PLACEMENT_3D('',#217,#182,#183);
#148=AXIS2_PLACEMENT_3D('',#219,#184,#185);
#149=AXIS2_PLACEMENT_3D('',#220,#186,#187);
#150=AXIS2_PLACEMENT_3D('',#221,#188,#189);
#151=AXIS2_PLACEMENT_3D('',#222,#190,#191);
#152=AXIS2_PLACEMENT_3D('',#223,#192,#193);
#153=DIRECTION('axis',(0.,0.,1.));
#154=DIRECTION('refdir',(1.,0.,0.));
#155=DIRECTION('center_axis',(0.,0.,1.));
#156=DIRECTION('ref_axis',(1.,0.,0.));
#157=DIRECTION('center_axis',(0.,0.,-1.));
#158=DIRECTION('ref_axis',(1.,0.,0.));
#159=DIRECTION('',(0.,0.,-1.));
#160=DIRECTION('center_axis',(0.,0.,1.));
#161=DIRECTION('ref_axis',(1.,0.,0.));
#162=DIRECTION('center_axis',(0.,0.,-1.));
#163=DIRECTION('ref_axis',(-1.,0.,0.));
#164=DIRECTION('center_axis',(0.,0.,1.));
#165=DIRECTION('ref_axis',(1.,0.,0.));
#166=DIRECTION('center_axis',(0.,0.,1.));
#167=DIRECTION('ref_axis',(1.,0.,0.));
#168=DIRECTION('',(0.,0.,-1.));
#169=DIRECTION('center_axis',(0.,0.,-1.));
#170=DIRECTION('ref_axis',(-1.,0.,0.));
#171=DIRECTION('center_axis',(0.,0.,1.));
#172=DIRECTION('ref_axis',(1.,0.,0.));
#173=DIRECTION('center_axis',(0.,0.,-1.));
#174=DIRECTION('ref_axis',(-1.,0.,0.));
#175=DIRECTION('center_axis',(0.,0.,-1.));
#176=DIRECTION('ref_axis',(1.,0.,0.));
#177=DIRECTION('',(0.,0.,1.));
#178=DIRECTION('center_axis',(0.,0.,-1.));
#179=DIRECTION('ref_axis',(1.,0.,0.));
#180=DIRECTION('center_axis',(0.,0.,-1.));
#181=DIRECTION('ref_axis',(1.,0.,0.));
#182=DIRECTION('center_axis',(0.,0.,-1.));
#183=DIRECTION('ref_axis',(-1.,0.,0.));
#184=DIRECTION('center_axis',(0.,0.,-1.));
#185=DIRECTION('ref_axis',(1.,0.,0.));
#186=DIRECTION('center_axis',(6.12323399573677E-17,0.,1.));
#187=DIRECTION('ref_axis',(1.,0.,0.));
#188=DIRECTION('center_axis',(1.22464679914735E-16,-1.,0.));
#189=DIRECTION('ref_axis',(-1.,-1.22464679914735E-16,0.));
#190=DIRECTION('center_axis',(6.12323399573677E-17,0.,1.));
#191=DIRECTION('ref_axis',(1.,0.,0.));
#192=DIRECTION('center_axis',(1.22464679914735E-16,-1.,0.));
#193=DIRECTION('ref_axis',(-1.,-1.22464679914735E-16,0.));
#194=CARTESIAN_POINT('',(0.,0.,0.));
#195=CARTESIAN_POINT('Origin',(0.,0.,-36.75));
#196=CARTESIAN_POINT('',(-19.75,2.41867742831602E-15,-3.49315864905924));
#197=CARTESIAN_POINT('Origin',(0.,0.,-3.49315864905924));
#198=CARTESIAN_POINT('',(-19.75,-2.41867742831602E-15,-72.5));
#199=CARTESIAN_POINT('',(-19.75,-2.41867742831602E-15,-36.75));
#200=CARTESIAN_POINT('Origin',(0.,0.,-72.5));
#201=CARTESIAN_POINT('Origin',(19.75,0.,-72.5));
#202=CARTESIAN_POINT('Origin',(0.,0.,0.49999999999998));
#203=CARTESIAN_POINT('',(-19.75,-2.41867742831602E-15,0.99999999999997));
#204=CARTESIAN_POINT('Origin',(0.,0.,0.99999999999997));
#205=CARTESIAN_POINT('',(-19.75,0.,-0.41551974173176));
#206=CARTESIAN_POINT('',(-19.75,-2.41867742831602E-15,0.49999999999998));
#207=CARTESIAN_POINT('Origin',(0.,0.,-0.41551974173176));
#208=CARTESIAN_POINT('Origin',(3.49999999999998,0.,0.999999999999972));
#209=CARTESIAN_POINT('Origin',(0.,0.,-164.567274208593));
#210=CARTESIAN_POINT('',(42.5,-5.20474889637625E-15,-165.));
#211=CARTESIAN_POINT('Origin',(0.,0.,-165.));
#212=CARTESIAN_POINT('',(42.5,-5.20474889637625E-15,-164.134548417186));
#213=CARTESIAN_POINT('',(42.5,-5.20474889637625E-15,-164.567274208593));
#214=CARTESIAN_POINT('',(-42.5,0.,-164.134548417186));
#215=CARTESIAN_POINT('Origin',(0.,0.,-164.134548417186));
#216=CARTESIAN_POINT('Origin',(0.,0.,-164.134548417186));
#217=CARTESIAN_POINT('Origin',(-42.5,0.,-165.));
#218=CARTESIAN_POINT('',(-46.9585277053262,0.,-165.));
#219=CARTESIAN_POINT('Origin',(0.,0.,-165.));
#220=CARTESIAN_POINT('Origin',(0.,0.,-88.221769519296));
#221=CARTESIAN_POINT('Origin',(0.,0.,-88.221769519296));
#222=CARTESIAN_POINT('Origin',(0.,0.,-88.221769519296));
#223=CARTESIAN_POINT('Origin',(0.,0.,-88.221769519296));
#224=UNCERTAINTY_MEASURE_WITH_UNIT(LENGTH_MEASURE(0.01),#228,
'DISTANCE_ACCURACY_VALUE',
'Maximum model space distance between geometric entities at asserted c
onnectivities');
#225=UNCERTAINTY_MEASURE_WITH_UNIT(LENGTH_MEASURE(0.01),#228,
'DISTANCE_ACCURACY_VALUE',
'Maximum model space distance between geometric entities at asserted c
onnectivities');
#226=(
GEOMETRIC_REPRESENTATION_CONTEXT(3)
GLOBAL_UNCERTAINTY_ASSIGNED_CONTEXT((#224))
GLOBAL_UNIT_ASSIGNED_CONTEXT((#228,#230,#231))
REPRESENTATION_CONTEXT('','3D')
);
#227=(
GEOMETRIC_REPRESENTATION_CONTEXT(3)
GLOBAL_UNCERTAINTY_ASSIGNED_CONTEXT((#225))
GLOBAL_UNIT_ASSIGNED_CONTEXT((#228,#230,#231))
REPRESENTATION_CONTEXT('','3D')
);
#228=(
LENGTH_UNIT()
NAMED_UNIT(*)
SI_UNIT(.MILLI.,.METRE.)
);
#229=(
LENGTH_UNIT()
NAMED_UNIT(*)
SI_UNIT(.CENTI.,.METRE.)
);
#230=(
NAMED_UNIT(*)
PLANE_ANGLE_UNIT()
SI_UNIT($,.RADIAN.)
);
#231=(
NAMED_UNIT(*)
SI_UNIT($,.STERADIAN.)
SOLID_ANGLE_UNIT()
);
#232=SHAPE_DEFINITION_REPRESENTATION(#233,#234);
#233=PRODUCT_DEFINITION_SHAPE('',$,#236);
#234=SHAPE_REPRESENTATION('',(#134),#226);
#235=PRODUCT_DEFINITION_CONTEXT('part definition',#240,'design');
#236=PRODUCT_DEFINITION('ENG000026003','ENG000026003',#237,#235);
#237=PRODUCT_DEFINITION_FORMATION('00',$,#242);
#238=PRODUCT_RELATED_PRODUCT_CATEGORY('ENG000026003','ENG000026003',(#242));
#239=APPLICATION_PROTOCOL_DEFINITION('international standard',
'automotive_design',2009,#240);
#240=APPLICATION_CONTEXT(
'Core Data for Automotive Mechanical Design Process');
#241=PRODUCT_CONTEXT('part definition',#240,'mechanical');
#242=PRODUCT('ENG000026003','ENG000026003','SIMPLE',(#241));
#243=PRESENTATION_STYLE_ASSIGNMENT((#244));
#244=SURFACE_STYLE_USAGE(.BOTH.,#247);
#245=SURFACE_STYLE_RENDERING_WITH_PROPERTIES($,#251,(#246));
#246=SURFACE_STYLE_TRANSPARENT(0.);
#247=SURFACE_SIDE_STYLE('',(#248,#245));
#248=SURFACE_STYLE_FILL_AREA(#249);
#249=FILL_AREA_STYLE('',(#250));
#250=FILL_AREA_STYLE_COLOUR('',#251);
#251=COLOUR_RGB('',1.,1.,1.);
ENDSEC;
END-ISO-10303-21;
