ISO-10303-21;
HEADER;
/* Generated by software containing ST-Developer
 * from STEP Tools, Inc. (www.steptools.com) 
 */

FILE_DESCRIPTION(
/* description */ ('This is a sample STEP configuration'),
/* implementation_level */ '2;1');

FILE_NAME(
/* name */ 'C:\\_JPTemp\\Daten\\636-01911xxxxxxxx _Simple.ipt_Rev_00.s
tp',
/* time_stamp */ '2022-05-09T09:13:54+02:00',
/* author */ ('powerJobs'),
/* organization */ ('coolOrange'),
/* preprocessor_version */ 'ST-DEVELOPER v18.1',
/* originating_system */ 'Autodesk Inventor 2020',
/* authorisation */ '');

FILE_SCHEMA (('AUTOMOTIVE_DESIGN { 1 0 10303 214 3 1 1 }'));
ENDSEC;

DATA;
#10=MECHANICAL_DESIGN_GEOMETRIC_PRESENTATION_REPRESENTATION('',(#13),#254);
#11=SHAPE_REPRESENTATION_RELATIONSHIP('SRR','None',#261,#12);
#12=ADVANCED_BREP_SHAPE_REPRESENTATION('',(#14),#253);
#13=STYLED_ITEM('',(#270),#14);
#14=MANIFOLD_SOLID_BREP('Volumenk\X\F6rper1',#127);
#15=SPHERICAL_SURFACE('',#164,90.);
#16=SPHERICAL_SURFACE('',#166,87.);
#17=FACE_BOUND('',#35,.T.);
#18=PLANE('',#151);
#19=PLANE('',#156);
#20=PLANE('',#162);
#21=FACE_OUTER_BOUND('',#29,.T.);
#22=FACE_OUTER_BOUND('',#30,.T.);
#23=FACE_OUTER_BOUND('',#31,.T.);
#24=FACE_OUTER_BOUND('',#32,.T.);
#25=FACE_OUTER_BOUND('',#33,.T.);
#26=FACE_OUTER_BOUND('',#34,.T.);
#27=FACE_OUTER_BOUND('',#36,.T.);
#28=FACE_OUTER_BOUND('',#37,.T.);
#29=EDGE_LOOP('',(#84,#85,#86,#87,#88));
#30=EDGE_LOOP('',(#89,#90));
#31=EDGE_LOOP('',(#91,#92,#93,#94,#95));
#32=EDGE_LOOP('',(#96,#97));
#33=EDGE_LOOP('',(#98,#99,#100,#101,#102,#103));
#34=EDGE_LOOP('',(#104));
#35=EDGE_LOOP('',(#105,#106));
#36=EDGE_LOOP('',(#107,#108,#109,#110));
#37=EDGE_LOOP('',(#111,#112,#113,#114,#115));
#38=LINE('',#220,#41);
#39=LINE('',#231,#42);
#40=LINE('',#239,#43);
#41=VECTOR('',#174,19.75);
#42=VECTOR('',#187,19.75);
#43=VECTOR('',#196,42.5);
#44=CIRCLE('',#148,19.75);
#45=CIRCLE('',#149,19.75);
#46=CIRCLE('',#150,19.75);
#47=CIRCLE('',#153,19.75);
#48=CIRCLE('',#154,19.75);
#49=CIRCLE('',#155,19.75);
#50=CIRCLE('',#158,42.5);
#51=CIRCLE('',#159,42.5);
#52=CIRCLE('',#160,42.5);
#53=CIRCLE('',#161,42.5);
#54=CIRCLE('',#163,46.9585277053262);
#55=CIRCLE('',#165,90.);
#56=CIRCLE('',#167,87.);
#57=VERTEX_POINT('',#217);
#58=VERTEX_POINT('',#219);
#59=VERTEX_POINT('',#221);
#60=VERTEX_POINT('',#226);
#61=VERTEX_POINT('',#227);
#62=VERTEX_POINT('',#230);
#63=VERTEX_POINT('',#235);
#64=VERTEX_POINT('',#236);
#65=VERTEX_POINT('',#238);
#66=VERTEX_POINT('',#240);
#67=VERTEX_POINT('',#245);
#68=EDGE_CURVE('',#57,#57,#44,.T.);
#69=EDGE_CURVE('',#57,#58,#38,.T.);
#70=EDGE_CURVE('',#58,#59,#45,.T.);
#71=EDGE_CURVE('',#59,#58,#46,.T.);
#72=EDGE_CURVE('',#60,#61,#47,.T.);
#73=EDGE_CURVE('',#61,#60,#48,.T.);
#74=EDGE_CURVE('',#61,#62,#39,.T.);
#75=EDGE_CURVE('',#62,#62,#49,.T.);
#76=EDGE_CURVE('',#63,#64,#50,.T.);
#77=EDGE_CURVE('',#64,#65,#40,.T.);
#78=EDGE_CURVE('',#66,#65,#51,.T.);
#79=EDGE_CURVE('',#65,#66,#52,.T.);
#80=EDGE_CURVE('',#64,#63,#53,.T.);
#81=EDGE_CURVE('',#67,#67,#54,.T.);
#82=EDGE_CURVE('',#62,#67,#55,.T.);
#83=EDGE_CURVE('',#57,#66,#56,.T.);
#84=ORIENTED_EDGE('',*,*,#68,.T.);
#85=ORIENTED_EDGE('',*,*,#69,.T.);
#86=ORIENTED_EDGE('',*,*,#70,.T.);
#87=ORIENTED_EDGE('',*,*,#71,.T.);
#88=ORIENTED_EDGE('',*,*,#69,.F.);
#89=ORIENTED_EDGE('',*,*,#71,.F.);
#90=ORIENTED_EDGE('',*,*,#70,.F.);
#91=ORIENTED_EDGE('',*,*,#72,.F.);
#92=ORIENTED_EDGE('',*,*,#73,.F.);
#93=ORIENTED_EDGE('',*,*,#74,.T.);
#94=ORIENTED_EDGE('',*,*,#75,.F.);
#95=ORIENTED_EDGE('',*,*,#74,.F.);
#96=ORIENTED_EDGE('',*,*,#72,.T.);
#97=ORIENTED_EDGE('',*,*,#73,.T.);
#98=ORIENTED_EDGE('',*,*,#76,.T.);
#99=ORIENTED_EDGE('',*,*,#77,.T.);
#100=ORIENTED_EDGE('',*,*,#78,.F.);
#101=ORIENTED_EDGE('',*,*,#79,.F.);
#102=ORIENTED_EDGE('',*,*,#77,.F.);
#103=ORIENTED_EDGE('',*,*,#80,.T.);
#104=ORIENTED_EDGE('',*,*,#81,.T.);
#105=ORIENTED_EDGE('',*,*,#76,.F.);
#106=ORIENTED_EDGE('',*,*,#80,.F.);
#107=ORIENTED_EDGE('',*,*,#75,.T.);
#108=ORIENTED_EDGE('',*,*,#82,.T.);
#109=ORIENTED_EDGE('',*,*,#81,.F.);
#110=ORIENTED_EDGE('',*,*,#82,.F.);
#111=ORIENTED_EDGE('',*,*,#68,.F.);
#112=ORIENTED_EDGE('',*,*,#83,.T.);
#113=ORIENTED_EDGE('',*,*,#78,.T.);
#114=ORIENTED_EDGE('',*,*,#79,.T.);
#115=ORIENTED_EDGE('',*,*,#83,.F.);
#116=CYLINDRICAL_SURFACE('',#147,19.75);
#117=CYLINDRICAL_SURFACE('',#152,19.75);
#118=CYLINDRICAL_SURFACE('',#157,42.5);
#119=ADVANCED_FACE('',(#21),#116,.T.);
#120=ADVANCED_FACE('',(#22),#18,.T.);
#121=ADVANCED_FACE('',(#23),#117,.T.);
#122=ADVANCED_FACE('',(#24),#19,.T.);
#123=ADVANCED_FACE('',(#25),#118,.F.);
#124=ADVANCED_FACE('',(#26,#17),#20,.T.);
#125=ADVANCED_FACE('',(#27),#15,.T.);
#126=ADVANCED_FACE('',(#28),#16,.F.);
#127=CLOSED_SHELL('',(#119,#120,#121,#122,#123,#124,#125,#126));
#128=DERIVED_UNIT_ELEMENT(#130,1.);
#129=DERIVED_UNIT_ELEMENT(#256,3.);
#130=(
MASS_UNIT()
NAMED_UNIT(*)
SI_UNIT($,.GRAM.)
);
#131=DERIVED_UNIT((#128,#129));
#132=MEASURE_REPRESENTATION_ITEM('density measure',
POSITIVE_RATIO_MEASURE(1.06),#131);
#133=PROPERTY_DEFINITION_REPRESENTATION(#138,#135);
#134=PROPERTY_DEFINITION_REPRESENTATION(#139,#136);
#135=REPRESENTATION('material name',(#137),#253);
#136=REPRESENTATION('density',(#132),#253);
#137=DESCRIPTIVE_REPRESENTATION_ITEM('_ ACC.TECHN. INFO',
'_ ACC.TECHN. INFO');
#138=PROPERTY_DEFINITION('material property','material name',#263);
#139=PROPERTY_DEFINITION('material property','density of part',#263);
#140=DATE_TIME_ROLE('creation_date');
#141=APPLIED_DATE_AND_TIME_ASSIGNMENT(#142,#140,(#263));
#142=DATE_AND_TIME(#143,#144);
#143=CALENDAR_DATE(2022,9,5);
#144=LOCAL_TIME(6,27,3.,#145);
#145=COORDINATED_UNIVERSAL_TIME_OFFSET(0,0,.BEHIND.);
#146=AXIS2_PLACEMENT_3D('placement',#215,#168,#169);
#147=AXIS2_PLACEMENT_3D('',#216,#170,#171);
#148=AXIS2_PLACEMENT_3D('',#218,#172,#173);
#149=AXIS2_PLACEMENT_3D('',#222,#175,#176);
#150=AXIS2_PLACEMENT_3D('',#223,#177,#178);
#151=AXIS2_PLACEMENT_3D('',#224,#179,#180);
#152=AXIS2_PLACEMENT_3D('',#225,#181,#182);
#153=AXIS2_PLACEMENT_3D('',#228,#183,#184);
#154=AXIS2_PLACEMENT_3D('',#229,#185,#186);
#155=AXIS2_PLACEMENT_3D('',#232,#188,#189);
#156=AXIS2_PLACEMENT_3D('',#233,#190,#191);
#157=AXIS2_PLACEMENT_3D('',#234,#192,#193);
#158=AXIS2_PLACEMENT_3D('',#237,#194,#195);
#159=AXIS2_PLACEMENT_3D('',#241,#197,#198);
#160=AXIS2_PLACEMENT_3D('',#242,#199,#200);
#161=AXIS2_PLACEMENT_3D('',#243,#201,#202);
#162=AXIS2_PLACEMENT_3D('',#244,#203,#204);
#163=AXIS2_PLACEMENT_3D('',#246,#205,#206);
#164=AXIS2_PLACEMENT_3D('',#247,#207,#208);
#165=AXIS2_PLACEMENT_3D('',#248,#209,#210);
#166=AXIS2_PLACEMENT_3D('',#249,#211,#212);
#167=AXIS2_PLACEMENT_3D('',#250,#213,#214);
#168=DIRECTION('axis',(0.,0.,1.));
#169=DIRECTION('refdir',(1.,0.,0.));
#170=DIRECTION('center_axis',(0.,0.,1.));
#171=DIRECTION('ref_axis',(1.,0.,0.));
#172=DIRECTION('center_axis',(0.,0.,-1.));
#173=DIRECTION('ref_axis',(1.,0.,0.));
#174=DIRECTION('',(0.,0.,-1.));
#175=DIRECTION('center_axis',(0.,0.,1.));
#176=DIRECTION('ref_axis',(1.,0.,0.));
#177=DIRECTION('center_axis',(0.,0.,1.));
#178=DIRECTION('ref_axis',(1.,0.,0.));
#179=DIRECTION('center_axis',(0.,0.,-1.));
#180=DIRECTION('ref_axis',(-1.,0.,0.));
#181=DIRECTION('center_axis',(0.,0.,1.));
#182=DIRECTION('ref_axis',(1.,0.,0.));
#183=DIRECTION('center_axis',(0.,0.,1.));
#184=DIRECTION('ref_axis',(1.,0.,0.));
#185=DIRECTION('center_axis',(0.,0.,1.));
#186=DIRECTION('ref_axis',(1.,0.,0.));
#187=DIRECTION('',(0.,0.,-1.));
#188=DIRECTION('center_axis',(0.,0.,-1.));
#189=DIRECTION('ref_axis',(-1.,0.,0.));
#190=DIRECTION('center_axis',(0.,0.,1.));
#191=DIRECTION('ref_axis',(1.,0.,0.));
#192=DIRECTION('center_axis',(0.,0.,-1.));
#193=DIRECTION('ref_axis',(-1.,0.,0.));
#194=DIRECTION('center_axis',(0.,0.,-1.));
#195=DIRECTION('ref_axis',(1.,0.,0.));
#196=DIRECTION('',(0.,0.,1.));
#197=DIRECTION('center_axis',(0.,0.,-1.));
#198=DIRECTION('ref_axis',(1.,0.,0.));
#199=DIRECTION('center_axis',(0.,0.,-1.));
#200=DIRECTION('ref_axis',(1.,0.,0.));
#201=DIRECTION('center_axis',(0.,0.,-1.));
#202=DIRECTION('ref_axis',(1.,0.,0.));
#203=DIRECTION('center_axis',(0.,0.,-1.));
#204=DIRECTION('ref_axis',(-1.,0.,0.));
#205=DIRECTION('center_axis',(0.,0.,-1.));
#206=DIRECTION('ref_axis',(1.,0.,0.));
#207=DIRECTION('center_axis',(6.12323399573677E-17,0.,1.));
#208=DIRECTION('ref_axis',(1.,0.,0.));
#209=DIRECTION('center_axis',(1.22464679914735E-16,-1.,0.));
#210=DIRECTION('ref_axis',(-1.,-1.22464679914735E-16,0.));
#211=DIRECTION('center_axis',(6.12323399573677E-17,0.,1.));
#212=DIRECTION('ref_axis',(1.,0.,0.));
#213=DIRECTION('center_axis',(1.22464679914735E-16,-1.,0.));
#214=DIRECTION('ref_axis',(-1.,-1.22464679914735E-16,0.));
#215=CARTESIAN_POINT('',(0.,0.,0.));
#216=CARTESIAN_POINT('Origin',(0.,0.,-36.75));
#217=CARTESIAN_POINT('',(-19.75,2.41867742831602E-15,-3.49315864905924));
#218=CARTESIAN_POINT('Origin',(0.,0.,-3.49315864905924));
#219=CARTESIAN_POINT('',(-19.75,-2.41867742831602E-15,-72.5));
#220=CARTESIAN_POINT('',(-19.75,-2.41867742831602E-15,-36.75));
#221=CARTESIAN_POINT('',(19.75,0.,-72.5));
#222=CARTESIAN_POINT('Origin',(0.,0.,-72.5));
#223=CARTESIAN_POINT('Origin',(0.,0.,-72.5));
#224=CARTESIAN_POINT('Origin',(19.75,0.,-72.5));
#225=CARTESIAN_POINT('Origin',(0.,0.,0.49999999999998));
#226=CARTESIAN_POINT('',(19.75,0.,0.99999999999997));
#227=CARTESIAN_POINT('',(-19.75,-2.41867742831602E-15,0.99999999999997));
#228=CARTESIAN_POINT('Origin',(0.,0.,0.99999999999997));
#229=CARTESIAN_POINT('Origin',(0.,0.,0.99999999999997));
#230=CARTESIAN_POINT('',(-19.75,0.,-0.41551974173176));
#231=CARTESIAN_POINT('',(-19.75,-2.41867742831602E-15,0.49999999999998));
#232=CARTESIAN_POINT('Origin',(0.,0.,-0.41551974173176));
#233=CARTESIAN_POINT('Origin',(3.49999999999998,0.,0.999999999999972));
#234=CARTESIAN_POINT('Origin',(0.,0.,-164.567274208593));
#235=CARTESIAN_POINT('',(-42.5,0.,-165.));
#236=CARTESIAN_POINT('',(42.5,-5.20474889637625E-15,-165.));
#237=CARTESIAN_POINT('Origin',(0.,0.,-165.));
#238=CARTESIAN_POINT('',(42.5,-5.20474889637625E-15,-164.134548417186));
#239=CARTESIAN_POINT('',(42.5,-5.20474889637625E-15,-164.567274208593));
#240=CARTESIAN_POINT('',(-42.5,0.,-164.134548417186));
#241=CARTESIAN_POINT('Origin',(0.,0.,-164.134548417186));
#242=CARTESIAN_POINT('Origin',(0.,0.,-164.134548417186));
#243=CARTESIAN_POINT('Origin',(0.,0.,-165.));
#244=CARTESIAN_POINT('Origin',(-42.5,0.,-165.));
#245=CARTESIAN_POINT('',(-46.9585277053262,0.,-165.));
#246=CARTESIAN_POINT('Origin',(0.,0.,-165.));
#247=CARTESIAN_POINT('Origin',(0.,0.,-88.221769519296));
#248=CARTESIAN_POINT('Origin',(0.,0.,-88.221769519296));
#249=CARTESIAN_POINT('Origin',(0.,0.,-88.221769519296));
#250=CARTESIAN_POINT('Origin',(0.,0.,-88.221769519296));
#251=UNCERTAINTY_MEASURE_WITH_UNIT(LENGTH_MEASURE(0.01),#255,
'DISTANCE_ACCURACY_VALUE',
'Maximum model space distance between geometric entities at asserted c
onnectivities');
#252=UNCERTAINTY_MEASURE_WITH_UNIT(LENGTH_MEASURE(0.01),#255,
'DISTANCE_ACCURACY_VALUE',
'Maximum model space distance between geometric entities at asserted c
onnectivities');
#253=(
GEOMETRIC_REPRESENTATION_CONTEXT(3)
GLOBAL_UNCERTAINTY_ASSIGNED_CONTEXT((#251))
GLOBAL_UNIT_ASSIGNED_CONTEXT((#255,#257,#258))
REPRESENTATION_CONTEXT('','3D')
);
#254=(
GEOMETRIC_REPRESENTATION_CONTEXT(3)
GLOBAL_UNCERTAINTY_ASSIGNED_CONTEXT((#252))
GLOBAL_UNIT_ASSIGNED_CONTEXT((#255,#257,#258))
REPRESENTATION_CONTEXT('','3D')
);
#255=(
LENGTH_UNIT()
NAMED_UNIT(*)
SI_UNIT(.MILLI.,.METRE.)
);
#256=(
LENGTH_UNIT()
NAMED_UNIT(*)
SI_UNIT(.CENTI.,.METRE.)
);
#257=(
NAMED_UNIT(*)
PLANE_ANGLE_UNIT()
SI_UNIT($,.RADIAN.)
);
#258=(
NAMED_UNIT(*)
SI_UNIT($,.STERADIAN.)
SOLID_ANGLE_UNIT()
);
#259=SHAPE_DEFINITION_REPRESENTATION(#260,#261);
#260=PRODUCT_DEFINITION_SHAPE('',$,#263);
#261=SHAPE_REPRESENTATION('',(#146),#253);
#262=PRODUCT_DEFINITION_CONTEXT('part definition',#267,'design');
#263=PRODUCT_DEFINITION('ENG000026000','ENG000026000',#264,#262);
#264=PRODUCT_DEFINITION_FORMATION('00',$,#269);
#265=PRODUCT_RELATED_PRODUCT_CATEGORY('ENG000026000','ENG000026000',(#269));
#266=APPLICATION_PROTOCOL_DEFINITION('international standard',
'automotive_design',2009,#267);
#267=APPLICATION_CONTEXT(
'Core Data for Automotive Mechanical Design Process');
#268=PRODUCT_CONTEXT('part definition',#267,'mechanical');
#269=PRODUCT('ENG000026000','ENG000026000','_Simple',(#268));
#270=PRESENTATION_STYLE_ASSIGNMENT((#271));
#271=SURFACE_STYLE_USAGE(.BOTH.,#274);
#272=SURFACE_STYLE_RENDERING_WITH_PROPERTIES($,#278,(#273));
#273=SURFACE_STYLE_TRANSPARENT(0.);
#274=SURFACE_SIDE_STYLE('',(#275,#272));
#275=SURFACE_STYLE_FILL_AREA(#276);
#276=FILL_AREA_STYLE('',(#277));
#277=FILL_AREA_STYLE_COLOUR('',#278);
#278=COLOUR_RGB('',1.,1.,1.);
ENDSEC;
END-ISO-10303-21;
