ISO-10303-21;
HEADER;
/* Generated by software containing ST-Developer
 * from STEP Tools, Inc. (www.steptools.com) 
 */

FILE_DESCRIPTION(
/* description */ ('This is a sample STEP configuration'),
/* implementation_level */ '2;1');

FILE_NAME(
/* name */ 'C:\\_JPTemp\\Daten\\636-02312xxxxxxxx _Simple.ipt_Rev_00.s
tp',
/* time_stamp */ '2022-05-09T09:15:38+02:00',
/* author */ ('powerJobs'),
/* organization */ ('coolOrange'),
/* preprocessor_version */ 'ST-DEVELOPER v18.1',
/* originating_system */ 'Autodesk Inventor 2020',
/* authorisation */ '');

FILE_SCHEMA (('AUTOMOTIVE_DESIGN { 1 0 10303 214 3 1 1 }'));
ENDSEC;

DATA;
#10=MECHANICAL_DESIGN_GEOMETRIC_PRESENTATION_REPRESENTATION('',(#13),#414);
#11=SHAPE_REPRESENTATION_RELATIONSHIP('SRR','None',#421,#12);
#12=ADVANCED_BREP_SHAPE_REPRESENTATION('',(#14),#413);
#13=STYLED_ITEM('',(#430),#14);
#14=MANIFOLD_SOLID_BREP('Volumenk\X\F6rper1',#214);
#15=LINE('',#379,#20);
#16=LINE('',#386,#21);
#17=LINE('',#392,#22);
#18=LINE('',#400,#23);
#19=LINE('',#410,#24);
#20=VECTOR('',#308,50.);
#21=VECTOR('',#317,24.75);
#22=VECTOR('',#324,17.8999977112);
#23=VECTOR('',#335,24.75);
#24=VECTOR('',#348,22.75);
#25=CYLINDRICAL_SURFACE('',#249,50.);
#26=CYLINDRICAL_SURFACE('',#253,24.75);
#27=CYLINDRICAL_SURFACE('',#258,17.8999977112);
#28=CYLINDRICAL_SURFACE('',#263,24.75);
#29=CYLINDRICAL_SURFACE('',#269,22.75);
#30=SPHERICAL_SURFACE('',#239,172.);
#31=SPHERICAL_SURFACE('',#244,175.);
#32=FACE_BOUND('',#52,.T.);
#33=FACE_BOUND('',#58,.T.);
#34=FACE_BOUND('',#61,.T.);
#35=FACE_BOUND('',#64,.T.);
#36=FACE_BOUND('',#68,.T.);
#37=FACE_OUTER_BOUND('',#51,.T.);
#38=FACE_OUTER_BOUND('',#53,.T.);
#39=FACE_OUTER_BOUND('',#54,.T.);
#40=FACE_OUTER_BOUND('',#55,.T.);
#41=FACE_OUTER_BOUND('',#56,.T.);
#42=FACE_OUTER_BOUND('',#57,.T.);
#43=FACE_OUTER_BOUND('',#59,.T.);
#44=FACE_OUTER_BOUND('',#60,.T.);
#45=FACE_OUTER_BOUND('',#62,.T.);
#46=FACE_OUTER_BOUND('',#63,.T.);
#47=FACE_OUTER_BOUND('',#65,.T.);
#48=FACE_OUTER_BOUND('',#66,.T.);
#49=FACE_OUTER_BOUND('',#67,.T.);
#50=FACE_OUTER_BOUND('',#69,.T.);
#51=EDGE_LOOP('',(#139));
#52=EDGE_LOOP('',(#140));
#53=EDGE_LOOP('',(#141));
#54=EDGE_LOOP('',(#142,#143,#144,#145,#146));
#55=EDGE_LOOP('',(#147,#148,#149,#150,#151));
#56=EDGE_LOOP('',(#152,#153,#154,#155,#156,#157));
#57=EDGE_LOOP('',(#158,#159));
#58=EDGE_LOOP('',(#160,#161));
#59=EDGE_LOOP('',(#162,#163,#164,#165,#166));
#60=EDGE_LOOP('',(#167));
#61=EDGE_LOOP('',(#168));
#62=EDGE_LOOP('',(#169,#170,#171,#172,#173));
#63=EDGE_LOOP('',(#174,#175));
#64=EDGE_LOOP('',(#176));
#65=EDGE_LOOP('',(#177,#178));
#66=EDGE_LOOP('',(#179,#180,#181,#182,#183));
#67=EDGE_LOOP('',(#184,#185));
#68=EDGE_LOOP('',(#186,#187));
#69=EDGE_LOOP('',(#188,#189,#190,#191,#192));
#70=CIRCLE('',#235,22.75);
#71=CIRCLE('',#236,19.1000003815);
#72=CIRCLE('',#238,13.4749937514);
#73=CIRCLE('',#240,50.);
#74=CIRCLE('',#241,172.);
#75=CIRCLE('',#242,24.75);
#76=CIRCLE('',#243,50.);
#77=CIRCLE('',#245,24.75);
#78=CIRCLE('',#246,175.);
#79=CIRCLE('',#247,55.);
#80=CIRCLE('',#248,55.);
#81=CIRCLE('',#250,50.);
#82=CIRCLE('',#251,50.);
#83=CIRCLE('',#254,24.75);
#84=CIRCLE('',#255,24.75);
#85=CIRCLE('',#257,17.8999981538);
#86=CIRCLE('',#259,17.8999980347);
#87=CIRCLE('',#260,17.8999980347);
#88=CIRCLE('',#264,24.75);
#89=CIRCLE('',#265,24.75);
#90=CIRCLE('',#267,22.75);
#91=CIRCLE('',#268,22.75);
#92=VERTEX_POINT('',#351);
#93=VERTEX_POINT('',#353);
#94=VERTEX_POINT('',#356);
#95=VERTEX_POINT('',#359);
#96=VERTEX_POINT('',#360);
#97=VERTEX_POINT('',#362);
#98=VERTEX_POINT('',#367);
#99=VERTEX_POINT('',#369);
#100=VERTEX_POINT('',#371);
#101=VERTEX_POINT('',#375);
#102=VERTEX_POINT('',#376);
#103=VERTEX_POINT('',#382);
#104=VERTEX_POINT('',#383);
#105=VERTEX_POINT('',#388);
#106=VERTEX_POINT('',#391);
#107=VERTEX_POINT('',#393);
#108=VERTEX_POINT('',#399);
#109=VERTEX_POINT('',#401);
#110=VERTEX_POINT('',#405);
#111=VERTEX_POINT('',#406);
#112=EDGE_CURVE('',#92,#92,#70,.T.);
#113=EDGE_CURVE('',#93,#93,#71,.T.);
#114=EDGE_CURVE('',#94,#94,#72,.T.);
#115=EDGE_CURVE('',#95,#96,#73,.T.);
#116=EDGE_CURVE('',#96,#97,#74,.T.);
#117=EDGE_CURVE('',#97,#97,#75,.T.);
#118=EDGE_CURVE('',#96,#95,#76,.T.);
#119=EDGE_CURVE('',#98,#98,#77,.T.);
#120=EDGE_CURVE('',#98,#99,#78,.T.);
#121=EDGE_CURVE('',#99,#100,#79,.T.);
#122=EDGE_CURVE('',#100,#99,#80,.T.);
#123=EDGE_CURVE('',#101,#102,#81,.T.);
#124=EDGE_CURVE('',#102,#101,#82,.T.);
#125=EDGE_CURVE('',#102,#95,#15,.T.);
#126=EDGE_CURVE('',#103,#104,#83,.T.);
#127=EDGE_CURVE('',#104,#103,#84,.T.);
#128=EDGE_CURVE('',#104,#98,#16,.T.);
#129=EDGE_CURVE('',#105,#105,#85,.T.);
#130=EDGE_CURVE('',#105,#106,#17,.T.);
#131=EDGE_CURVE('',#107,#106,#86,.T.);
#132=EDGE_CURVE('',#106,#107,#87,.T.);
#133=EDGE_CURVE('',#97,#108,#18,.T.);
#134=EDGE_CURVE('',#108,#109,#88,.T.);
#135=EDGE_CURVE('',#109,#108,#89,.T.);
#136=EDGE_CURVE('',#110,#111,#90,.T.);
#137=EDGE_CURVE('',#111,#110,#91,.T.);
#138=EDGE_CURVE('',#92,#111,#19,.T.);
#139=ORIENTED_EDGE('',*,*,#112,.F.);
#140=ORIENTED_EDGE('',*,*,#113,.F.);
#141=ORIENTED_EDGE('',*,*,#114,.T.);
#142=ORIENTED_EDGE('',*,*,#115,.T.);
#143=ORIENTED_EDGE('',*,*,#116,.T.);
#144=ORIENTED_EDGE('',*,*,#117,.F.);
#145=ORIENTED_EDGE('',*,*,#116,.F.);
#146=ORIENTED_EDGE('',*,*,#118,.T.);
#147=ORIENTED_EDGE('',*,*,#119,.F.);
#148=ORIENTED_EDGE('',*,*,#120,.T.);
#149=ORIENTED_EDGE('',*,*,#121,.T.);
#150=ORIENTED_EDGE('',*,*,#122,.T.);
#151=ORIENTED_EDGE('',*,*,#120,.F.);
#152=ORIENTED_EDGE('',*,*,#123,.F.);
#153=ORIENTED_EDGE('',*,*,#124,.F.);
#154=ORIENTED_EDGE('',*,*,#125,.T.);
#155=ORIENTED_EDGE('',*,*,#118,.F.);
#156=ORIENTED_EDGE('',*,*,#115,.F.);
#157=ORIENTED_EDGE('',*,*,#125,.F.);
#158=ORIENTED_EDGE('',*,*,#122,.F.);
#159=ORIENTED_EDGE('',*,*,#121,.F.);
#160=ORIENTED_EDGE('',*,*,#123,.T.);
#161=ORIENTED_EDGE('',*,*,#124,.T.);
#162=ORIENTED_EDGE('',*,*,#126,.F.);
#163=ORIENTED_EDGE('',*,*,#127,.F.);
#164=ORIENTED_EDGE('',*,*,#128,.T.);
#165=ORIENTED_EDGE('',*,*,#119,.T.);
#166=ORIENTED_EDGE('',*,*,#128,.F.);
#167=ORIENTED_EDGE('',*,*,#113,.T.);
#168=ORIENTED_EDGE('',*,*,#129,.T.);
#169=ORIENTED_EDGE('',*,*,#129,.F.);
#170=ORIENTED_EDGE('',*,*,#130,.T.);
#171=ORIENTED_EDGE('',*,*,#131,.F.);
#172=ORIENTED_EDGE('',*,*,#132,.F.);
#173=ORIENTED_EDGE('',*,*,#130,.F.);
#174=ORIENTED_EDGE('',*,*,#131,.T.);
#175=ORIENTED_EDGE('',*,*,#132,.T.);
#176=ORIENTED_EDGE('',*,*,#114,.F.);
#177=ORIENTED_EDGE('',*,*,#126,.T.);
#178=ORIENTED_EDGE('',*,*,#127,.T.);
#179=ORIENTED_EDGE('',*,*,#117,.T.);
#180=ORIENTED_EDGE('',*,*,#133,.T.);
#181=ORIENTED_EDGE('',*,*,#134,.T.);
#182=ORIENTED_EDGE('',*,*,#135,.T.);
#183=ORIENTED_EDGE('',*,*,#133,.F.);
#184=ORIENTED_EDGE('',*,*,#135,.F.);
#185=ORIENTED_EDGE('',*,*,#134,.F.);
#186=ORIENTED_EDGE('',*,*,#136,.T.);
#187=ORIENTED_EDGE('',*,*,#137,.T.);
#188=ORIENTED_EDGE('',*,*,#112,.T.);
#189=ORIENTED_EDGE('',*,*,#138,.T.);
#190=ORIENTED_EDGE('',*,*,#136,.F.);
#191=ORIENTED_EDGE('',*,*,#137,.F.);
#192=ORIENTED_EDGE('',*,*,#138,.F.);
#193=PLANE('',#234);
#194=PLANE('',#237);
#195=PLANE('',#252);
#196=PLANE('',#256);
#197=PLANE('',#261);
#198=PLANE('',#262);
#199=PLANE('',#266);
#200=ADVANCED_FACE('',(#37,#32),#193,.T.);
#201=ADVANCED_FACE('',(#38),#194,.T.);
#202=ADVANCED_FACE('',(#39),#30,.F.);
#203=ADVANCED_FACE('',(#40),#31,.T.);
#204=ADVANCED_FACE('',(#41),#25,.F.);
#205=ADVANCED_FACE('',(#42,#33),#195,.T.);
#206=ADVANCED_FACE('',(#43),#26,.T.);
#207=ADVANCED_FACE('',(#44,#34),#196,.T.);
#208=ADVANCED_FACE('',(#45),#27,.F.);
#209=ADVANCED_FACE('',(#46,#35),#197,.T.);
#210=ADVANCED_FACE('',(#47),#198,.T.);
#211=ADVANCED_FACE('',(#48),#28,.T.);
#212=ADVANCED_FACE('',(#49,#36),#199,.T.);
#213=ADVANCED_FACE('',(#50),#29,.F.);
#214=CLOSED_SHELL('',(#200,#201,#202,#203,#204,#205,#206,#207,#208,#209,
#210,#211,#212,#213));
#215=DERIVED_UNIT_ELEMENT(#217,1.);
#216=DERIVED_UNIT_ELEMENT(#416,3.);
#217=(
MASS_UNIT()
NAMED_UNIT(*)
SI_UNIT($,.GRAM.)
);
#218=DERIVED_UNIT((#215,#216));
#219=MEASURE_REPRESENTATION_ITEM('density measure',
POSITIVE_RATIO_MEASURE(1.06),#218);
#220=PROPERTY_DEFINITION_REPRESENTATION(#225,#222);
#221=PROPERTY_DEFINITION_REPRESENTATION(#226,#223);
#222=REPRESENTATION('material name',(#224),#413);
#223=REPRESENTATION('density',(#219),#413);
#224=DESCRIPTIVE_REPRESENTATION_ITEM('_ ACC.TECHN. INFO',
'_ ACC.TECHN. INFO');
#225=PROPERTY_DEFINITION('material property','material name',#423);
#226=PROPERTY_DEFINITION('material property','density of part',#423);
#227=DATE_TIME_ROLE('creation_date');
#228=APPLIED_DATE_AND_TIME_ASSIGNMENT(#229,#227,(#423));
#229=DATE_AND_TIME(#230,#231);
#230=CALENDAR_DATE(2022,8,5);
#231=LOCAL_TIME(22,0,0.,#232);
#232=COORDINATED_UNIVERSAL_TIME_OFFSET(0,0,.BEHIND.);
#233=AXIS2_PLACEMENT_3D('placement',#349,#270,#271);
#234=AXIS2_PLACEMENT_3D('',#350,#272,#273);
#235=AXIS2_PLACEMENT_3D('',#352,#274,#275);
#236=AXIS2_PLACEMENT_3D('',#354,#276,#277);
#237=AXIS2_PLACEMENT_3D('',#355,#278,#279);
#238=AXIS2_PLACEMENT_3D('',#357,#280,#281);
#239=AXIS2_PLACEMENT_3D('',#358,#282,#283);
#240=AXIS2_PLACEMENT_3D('',#361,#284,#285);
#241=AXIS2_PLACEMENT_3D('',#363,#286,#287);
#242=AXIS2_PLACEMENT_3D('',#364,#288,#289);
#243=AXIS2_PLACEMENT_3D('',#365,#290,#291);
#244=AXIS2_PLACEMENT_3D('',#366,#292,#293);
#245=AXIS2_PLACEMENT_3D('',#368,#294,#295);
#246=AXIS2_PLACEMENT_3D('',#370,#296,#297);
#247=AXIS2_PLACEMENT_3D('',#372,#298,#299);
#248=AXIS2_PLACEMENT_3D('',#373,#300,#301);
#249=AXIS2_PLACEMENT_3D('',#374,#302,#303);
#250=AXIS2_PLACEMENT_3D('',#377,#304,#305);
#251=AXIS2_PLACEMENT_3D('',#378,#306,#307);
#252=AXIS2_PLACEMENT_3D('',#380,#309,#310);
#253=AXIS2_PLACEMENT_3D('',#381,#311,#312);
#254=AXIS2_PLACEMENT_3D('',#384,#313,#314);
#255=AXIS2_PLACEMENT_3D('',#385,#315,#316);
#256=AXIS2_PLACEMENT_3D('',#387,#318,#319);
#257=AXIS2_PLACEMENT_3D('',#389,#320,#321);
#258=AXIS2_PLACEMENT_3D('',#390,#322,#323);
#259=AXIS2_PLACEMENT_3D('',#394,#325,#326);
#260=AXIS2_PLACEMENT_3D('',#395,#327,#328);
#261=AXIS2_PLACEMENT_3D('',#396,#329,#330);
#262=AXIS2_PLACEMENT_3D('',#397,#331,#332);
#263=AXIS2_PLACEMENT_3D('',#398,#333,#334);
#264=AXIS2_PLACEMENT_3D('',#402,#336,#337);
#265=AXIS2_PLACEMENT_3D('',#403,#338,#339);
#266=AXIS2_PLACEMENT_3D('',#404,#340,#341);
#267=AXIS2_PLACEMENT_3D('',#407,#342,#343);
#268=AXIS2_PLACEMENT_3D('',#408,#344,#345);
#269=AXIS2_PLACEMENT_3D('',#409,#346,#347);
#270=DIRECTION('axis',(0.,0.,1.));
#271=DIRECTION('refdir',(1.,0.,0.));
#272=DIRECTION('center_axis',(-1.75073620538777E-16,0.,-1.));
#273=DIRECTION('ref_axis',(-1.,0.,1.75073620538777E-16));
#274=DIRECTION('center_axis',(1.75073620538777E-16,0.,1.));
#275=DIRECTION('ref_axis',(1.,0.,0.));
#276=DIRECTION('center_axis',(-1.62868628449E-10,-1.10281739042E-11,-1.));
#277=DIRECTION('ref_axis',(0.987688362815228,-0.156434324748036,-1.59138264048847E-10));
#278=DIRECTION('center_axis',(-1.75073620538777E-16,0.,-1.));
#279=DIRECTION('ref_axis',(-1.,0.,1.75073620538777E-16));
#280=DIRECTION('center_axis',(-1.62868628449E-10,-1.10281739042E-11,-1.));
#281=DIRECTION('ref_axis',(-1.,6.65056599144843E-9,1.62868628375656E-10));
#282=DIRECTION('center_axis',(6.12323399573677E-17,0.,1.));
#283=DIRECTION('ref_axis',(1.,0.,0.));
#284=DIRECTION('center_axis',(0.,0.,-1.));
#285=DIRECTION('ref_axis',(-1.,0.,0.));
#286=DIRECTION('center_axis',(-1.22464679914735E-16,1.,0.));
#287=DIRECTION('ref_axis',(-1.,-1.22464679914735E-16,0.));
#288=DIRECTION('center_axis',(0.,0.,-1.));
#289=DIRECTION('ref_axis',(1.,0.,0.));
#290=DIRECTION('center_axis',(0.,0.,-1.));
#291=DIRECTION('ref_axis',(-1.,0.,0.));
#292=DIRECTION('center_axis',(6.12323399573677E-17,0.,1.));
#293=DIRECTION('ref_axis',(1.,0.,0.));
#294=DIRECTION('center_axis',(0.,0.,1.));
#295=DIRECTION('ref_axis',(1.,0.,0.));
#296=DIRECTION('center_axis',(1.22464679914735E-16,-1.,0.));
#297=DIRECTION('ref_axis',(-1.,-1.22464679914735E-16,0.));
#298=DIRECTION('center_axis',(0.,0.,1.));
#299=DIRECTION('ref_axis',(1.,0.,0.));
#300=DIRECTION('center_axis',(0.,0.,1.));
#301=DIRECTION('ref_axis',(1.,0.,0.));
#302=DIRECTION('center_axis',(0.,0.,-1.));
#303=DIRECTION('ref_axis',(-1.,0.,0.));
#304=DIRECTION('center_axis',(0.,0.,1.));
#305=DIRECTION('ref_axis',(-1.,0.,0.));
#306=DIRECTION('center_axis',(0.,0.,1.));
#307=DIRECTION('ref_axis',(-1.,0.,0.));
#308=DIRECTION('',(0.,0.,1.));
#309=DIRECTION('center_axis',(0.,0.,-1.));
#310=DIRECTION('ref_axis',(-1.,0.,0.));
#311=DIRECTION('center_axis',(0.,0.,1.));
#312=DIRECTION('ref_axis',(1.,0.,0.));
#313=DIRECTION('center_axis',(0.,0.,1.));
#314=DIRECTION('ref_axis',(1.,0.,0.));
#315=DIRECTION('center_axis',(0.,0.,1.));
#316=DIRECTION('ref_axis',(1.,0.,0.));
#317=DIRECTION('',(0.,0.,-1.));
#318=DIRECTION('center_axis',(-1.62868628449E-10,-1.10281739042E-11,-1.));
#319=DIRECTION('ref_axis',(1.,-8.42769109128871E-21,-1.62868628449E-10));
#320=DIRECTION('center_axis',(1.62868628449E-10,1.10281739042E-11,1.));
#321=DIRECTION('ref_axis',(0.999999999999884,-4.82488100172952E-7,-1.62868623128018E-10));
#322=DIRECTION('center_axis',(1.62868628449E-10,1.10281739042E-11,1.));
#323=DIRECTION('ref_axis',(1.,-8.42769109128871E-21,-1.62868628449E-10));
#324=DIRECTION('',(1.62868628449E-10,1.10281739042E-11,1.));
#325=DIRECTION('center_axis',(-1.62868628449E-10,-1.10281739042E-11,-1.));
#326=DIRECTION('ref_axis',(-0.99999999999988,-4.89250128183933E-7,1.62868633844516E-10));
#327=DIRECTION('center_axis',(-1.62868628449E-10,-1.10281739042E-11,-1.));
#328=DIRECTION('ref_axis',(-0.99999999999988,-4.89250128183933E-7,1.62868633844516E-10));
#329=DIRECTION('center_axis',(-1.62868628449E-10,-1.10281739042E-11,-1.));
#330=DIRECTION('ref_axis',(1.,-8.42769109128871E-21,-1.62868628449E-10));
#331=DIRECTION('center_axis',(0.,0.,1.));
#332=DIRECTION('ref_axis',(1.,0.,0.));
#333=DIRECTION('center_axis',(0.,0.,1.));
#334=DIRECTION('ref_axis',(1.,0.,0.));
#335=DIRECTION('',(0.,0.,-1.));
#336=DIRECTION('center_axis',(0.,0.,1.));
#337=DIRECTION('ref_axis',(1.,0.,0.));
#338=DIRECTION('center_axis',(0.,0.,1.));
#339=DIRECTION('ref_axis',(1.,0.,0.));
#340=DIRECTION('center_axis',(0.,0.,-1.));
#341=DIRECTION('ref_axis',(-1.,0.,0.));
#342=DIRECTION('center_axis',(0.,0.,1.));
#343=DIRECTION('ref_axis',(1.,0.,0.));
#344=DIRECTION('center_axis',(0.,0.,1.));
#345=DIRECTION('ref_axis',(1.,0.,0.));
#346=DIRECTION('center_axis',(0.,0.,1.));
#347=DIRECTION('ref_axis',(1.,0.,0.));
#348=DIRECTION('',(0.,0.,-1.));
#349=CARTESIAN_POINT('',(0.,0.,0.));
#350=CARTESIAN_POINT('Origin',(-17.8999987961217,0.,-72.9999999973383));
#351=CARTESIAN_POINT('',(-22.75,0.,-72.9999999973383));
#352=CARTESIAN_POINT('Origin',(0.,0.,-72.9999999973383));
#353=CARTESIAN_POINT('',(18.8648472205266,-2.98788766901162,-73.0000000032932));
#354=CARTESIAN_POINT('Origin',(-8.85994020883553E-7,7.99335754590212E-6,
-73.0000000002537));
#355=CARTESIAN_POINT('Origin',(-1.11022302462516E-14,0.,-64.0000038120383));
#356=CARTESIAN_POINT('',(13.4749933408925,1.07577473651069E-5,-64.0000038171483));
#357=CARTESIAN_POINT('Origin',(-4.51473447350217E-7,1.06681313141877E-5,
-64.0000038149537));
#358=CARTESIAN_POINT('Origin',(0.,0.,-173.735431043872));
#359=CARTESIAN_POINT('',(50.,-6.12323399573677E-15,-338.307603661238));
#360=CARTESIAN_POINT('',(-50.,0.,-338.307603661238));
#361=CARTESIAN_POINT('Origin',(0.,0.,-338.307603661238));
#362=CARTESIAN_POINT('',(-24.75,3.0310008278897E-15,-3.52545043168821));
#363=CARTESIAN_POINT('Origin',(0.,0.,-173.735431043872));
#364=CARTESIAN_POINT('Origin',(0.,0.,-3.52545043168821));
#365=CARTESIAN_POINT('Origin',(0.,0.,-338.307603661238));
#366=CARTESIAN_POINT('Origin',(0.,0.,-173.735431043872));
#367=CARTESIAN_POINT('',(-24.75,-3.0310008278897E-15,-0.494450037644754));
#368=CARTESIAN_POINT('Origin',(0.,0.,-0.494450037644754));
#369=CARTESIAN_POINT('',(-55.,0.,-339.867908302234));
#370=CARTESIAN_POINT('Origin',(0.,0.,-173.735431043872));
#371=CARTESIAN_POINT('',(55.,0.,-339.867908302234));
#372=CARTESIAN_POINT('Origin',(0.,0.,-339.867908302234));
#373=CARTESIAN_POINT('Origin',(0.,0.,-339.867908302234));
#374=CARTESIAN_POINT('Origin',(0.,0.,-329.867908302234));
#375=CARTESIAN_POINT('',(-50.,0.,-339.867908302234));
#376=CARTESIAN_POINT('',(50.,-6.12323399573677E-15,-339.867908302234));
#377=CARTESIAN_POINT('Origin',(0.,0.,-339.867908302234));
#378=CARTESIAN_POINT('Origin',(0.,0.,-339.867908302234));
#379=CARTESIAN_POINT('',(50.,-6.12323399573677E-15,-329.867908302234));
#380=CARTESIAN_POINT('Origin',(55.,0.,-339.867908302234));
#381=CARTESIAN_POINT('Origin',(0.,0.,0.499999999999979));
#382=CARTESIAN_POINT('',(24.75,0.,0.99999999999997));
#383=CARTESIAN_POINT('',(-24.75,-3.0310008278897E-15,0.99999999999997));
#384=CARTESIAN_POINT('Origin',(0.,0.,0.99999999999997));
#385=CARTESIAN_POINT('Origin',(0.,0.,0.99999999999997));
#386=CARTESIAN_POINT('',(-24.75,-3.0310008278897E-15,0.499999999999979));
#387=CARTESIAN_POINT('Origin',(-19.3878047034734,-19.3035670186516,-72.9999999968831));
#388=CARTESIAN_POINT('',(-17.8999994327734,1.07576351303274E-5,-72.9999999973383));
#389=CARTESIAN_POINT('Origin',(-6.42321797596553E-7,1.93941902655721E-5,
-73.0000000002537));
#390=CARTESIAN_POINT('Origin',(-4.48336220904002E-7,1.07576373477482E-5,
-74.0000000002537));
#391=CARTESIAN_POINT('',(-17.8999981579075,1.07577476272532E-5,-64.0000038120383));
#392=CARTESIAN_POINT('',(-17.8999981595362,1.07576373455562E-5,-73.9999999973383));
#393=CARTESIAN_POINT('',(17.8999972644925,1.07577482024737E-5,-64.000003817869));
#394=CARTESIAN_POINT('Origin',(-7.70207403911807E-7,1.95153360572252E-5,
-64.0000038149537));
#395=CARTESIAN_POINT('Origin',(-7.70207403911807E-7,1.95153360572252E-5,
-64.0000038149537));
#396=CARTESIAN_POINT('Origin',(-17.9000224583075,-18.0815700682524,-64.0000038118389));
#397=CARTESIAN_POINT('Origin',(3.49999999999998,0.,0.999999999999972));
#398=CARTESIAN_POINT('Origin',(0.,0.,0.499999999999979));
#399=CARTESIAN_POINT('',(-24.75,0.,-79.));
#400=CARTESIAN_POINT('',(-24.75,-3.0310008278897E-15,0.499999999999979));
#401=CARTESIAN_POINT('',(24.75,0.,-79.));
#402=CARTESIAN_POINT('Origin',(0.,0.,-79.));
#403=CARTESIAN_POINT('Origin',(0.,0.,-79.));
#404=CARTESIAN_POINT('Origin',(24.75,0.,-79.));
#405=CARTESIAN_POINT('',(22.75,0.,-79.));
#406=CARTESIAN_POINT('',(-22.75,-2.78607146806023E-15,-79.));
#407=CARTESIAN_POINT('Origin',(0.,0.,-79.));
#408=CARTESIAN_POINT('Origin',(0.,0.,-79.));
#409=CARTESIAN_POINT('Origin',(0.,0.,-49.5));
#410=CARTESIAN_POINT('',(-22.75,-2.78607146806023E-15,-49.5));
#411=UNCERTAINTY_MEASURE_WITH_UNIT(LENGTH_MEASURE(0.01),#415,
'DISTANCE_ACCURACY_VALUE',
'Maximum model space distance between geometric entities at asserted c
onnectivities');
#412=UNCERTAINTY_MEASURE_WITH_UNIT(LENGTH_MEASURE(0.01),#415,
'DISTANCE_ACCURACY_VALUE',
'Maximum model space distance between geometric entities at asserted c
onnectivities');
#413=(
GEOMETRIC_REPRESENTATION_CONTEXT(3)
GLOBAL_UNCERTAINTY_ASSIGNED_CONTEXT((#411))
GLOBAL_UNIT_ASSIGNED_CONTEXT((#415,#417,#418))
REPRESENTATION_CONTEXT('','3D')
);
#414=(
GEOMETRIC_REPRESENTATION_CONTEXT(3)
GLOBAL_UNCERTAINTY_ASSIGNED_CONTEXT((#412))
GLOBAL_UNIT_ASSIGNED_CONTEXT((#415,#417,#418))
REPRESENTATION_CONTEXT('','3D')
);
#415=(
LENGTH_UNIT()
NAMED_UNIT(*)
SI_UNIT(.MILLI.,.METRE.)
);
#416=(
LENGTH_UNIT()
NAMED_UNIT(*)
SI_UNIT(.CENTI.,.METRE.)
);
#417=(
NAMED_UNIT(*)
PLANE_ANGLE_UNIT()
SI_UNIT($,.RADIAN.)
);
#418=(
NAMED_UNIT(*)
SI_UNIT($,.STERADIAN.)
SOLID_ANGLE_UNIT()
);
#419=SHAPE_DEFINITION_REPRESENTATION(#420,#421);
#420=PRODUCT_DEFINITION_SHAPE('',$,#423);
#421=SHAPE_REPRESENTATION('',(#233),#413);
#422=PRODUCT_DEFINITION_CONTEXT('part definition',#427,'design');
#423=PRODUCT_DEFINITION('ENG000026005','ENG000026005',#424,#422);
#424=PRODUCT_DEFINITION_FORMATION('00',$,#429);
#425=PRODUCT_RELATED_PRODUCT_CATEGORY('ENG000026005','ENG000026005',(#429));
#426=APPLICATION_PROTOCOL_DEFINITION('international standard',
'automotive_design',2009,#427);
#427=APPLICATION_CONTEXT(
'Core Data for Automotive Mechanical Design Process');
#428=PRODUCT_CONTEXT('part definition',#427,'mechanical');
#429=PRODUCT('ENG000026005','ENG000026005','_Simple',(#428));
#430=PRESENTATION_STYLE_ASSIGNMENT((#431));
#431=SURFACE_STYLE_USAGE(.BOTH.,#434);
#432=SURFACE_STYLE_RENDERING_WITH_PROPERTIES($,#438,(#433));
#433=SURFACE_STYLE_TRANSPARENT(0.);
#434=SURFACE_SIDE_STYLE('',(#435,#432));
#435=SURFACE_STYLE_FILL_AREA(#436);
#436=FILL_AREA_STYLE('',(#437));
#437=FILL_AREA_STYLE_COLOUR('',#438);
#438=COLOUR_RGB('',1.,1.,1.);
ENDSEC;
END-ISO-10303-21;
