ISO-10303-21;
HEADER;
/* Generated by software containing ST-Developer
 * from STEP Tools, Inc. (www.steptools.com) 
 */

FILE_DESCRIPTION(
/* description */ ('This is a sample STEP configuration'),
/* implementation_level */ '2;1');

FILE_NAME(
/* name */ '636-02312xxxxxxxx SIMPLE.ipt_Rev_00.1.stp',
/* time_stamp */ '2023-04-27T16:20:20+02:00',
/* author */ ('powerJobs'),
/* organization */ ('coolOrange'),
/* preprocessor_version */ 'ST-DEVELOPER v19.2',
/* originating_system */ 'Autodesk Inventor 2023',
/* authorisation */ '');

FILE_SCHEMA (('AUTOMOTIVE_DESIGN { 1 0 10303 214 3 1 1 }'));
ENDSEC;

DATA;
#10=MECHANICAL_DESIGN_GEOMETRIC_PRESENTATION_REPRESENTATION('',(#13),#357);
#11=SHAPE_REPRESENTATION_RELATIONSHIP('SRR','None',#364,#12);
#12=ADVANCED_BREP_SHAPE_REPRESENTATION('',(#14),#356);
#13=STYLED_ITEM('',(#373),#14);
#14=MANIFOLD_SOLID_BREP('Volumenk\X\F6rper1',#184);
#15=LINE('',#330,#20);
#16=LINE('',#335,#21);
#17=LINE('',#341,#22);
#18=LINE('',#347,#23);
#19=LINE('',#353,#24);
#20=VECTOR('',#271,50.);
#21=VECTOR('',#278,24.75);
#22=VECTOR('',#285,17.8999977112);
#23=VECTOR('',#294,24.75);
#24=VECTOR('',#303,22.75);
#25=CYLINDRICAL_SURFACE('',#221,50.);
#26=CYLINDRICAL_SURFACE('',#224,24.75);
#27=CYLINDRICAL_SURFACE('',#228,17.8999977112);
#28=CYLINDRICAL_SURFACE('',#232,24.75);
#29=CYLINDRICAL_SURFACE('',#236,22.75);
#30=SPHERICAL_SURFACE('',#212,172.);
#31=SPHERICAL_SURFACE('',#217,175.);
#32=FACE_BOUND('',#52,.T.);
#33=FACE_BOUND('',#58,.T.);
#34=FACE_BOUND('',#61,.T.);
#35=FACE_BOUND('',#64,.T.);
#36=FACE_BOUND('',#68,.T.);
#37=FACE_OUTER_BOUND('',#51,.T.);
#38=FACE_OUTER_BOUND('',#53,.T.);
#39=FACE_OUTER_BOUND('',#54,.T.);
#40=FACE_OUTER_BOUND('',#55,.T.);
#41=FACE_OUTER_BOUND('',#56,.T.);
#42=FACE_OUTER_BOUND('',#57,.T.);
#43=FACE_OUTER_BOUND('',#59,.T.);
#44=FACE_OUTER_BOUND('',#60,.T.);
#45=FACE_OUTER_BOUND('',#62,.T.);
#46=FACE_OUTER_BOUND('',#63,.T.);
#47=FACE_OUTER_BOUND('',#65,.T.);
#48=FACE_OUTER_BOUND('',#66,.T.);
#49=FACE_OUTER_BOUND('',#67,.T.);
#50=FACE_OUTER_BOUND('',#69,.T.);
#51=EDGE_LOOP('',(#121));
#52=EDGE_LOOP('',(#122));
#53=EDGE_LOOP('',(#123));
#54=EDGE_LOOP('',(#124,#125,#126,#127,#128));
#55=EDGE_LOOP('',(#129,#130,#131,#132));
#56=EDGE_LOOP('',(#133,#134,#135,#136,#137));
#57=EDGE_LOOP('',(#138));
#58=EDGE_LOOP('',(#139));
#59=EDGE_LOOP('',(#140,#141,#142,#143));
#60=EDGE_LOOP('',(#144));
#61=EDGE_LOOP('',(#145));
#62=EDGE_LOOP('',(#146,#147,#148,#149));
#63=EDGE_LOOP('',(#150));
#64=EDGE_LOOP('',(#151));
#65=EDGE_LOOP('',(#152));
#66=EDGE_LOOP('',(#153,#154,#155,#156));
#67=EDGE_LOOP('',(#157));
#68=EDGE_LOOP('',(#158));
#69=EDGE_LOOP('',(#159,#160,#161,#162));
#70=CIRCLE('',#208,22.75);
#71=CIRCLE('',#209,19.1000003815);
#72=CIRCLE('',#211,13.4749937514);
#73=CIRCLE('',#213,50.);
#74=CIRCLE('',#214,172.);
#75=CIRCLE('',#215,24.75);
#76=CIRCLE('',#216,50.);
#77=CIRCLE('',#218,24.75);
#78=CIRCLE('',#219,175.);
#79=CIRCLE('',#220,55.);
#80=CIRCLE('',#222,50.);
#81=CIRCLE('',#225,24.75);
#82=CIRCLE('',#227,17.8999981538);
#83=CIRCLE('',#229,17.8999980347);
#84=CIRCLE('',#233,24.75);
#85=CIRCLE('',#235,22.75);
#86=VERTEX_POINT('',#306);
#87=VERTEX_POINT('',#308);
#88=VERTEX_POINT('',#311);
#89=VERTEX_POINT('',#314);
#90=VERTEX_POINT('',#315);
#91=VERTEX_POINT('',#317);
#92=VERTEX_POINT('',#322);
#93=VERTEX_POINT('',#324);
#94=VERTEX_POINT('',#328);
#95=VERTEX_POINT('',#333);
#96=VERTEX_POINT('',#337);
#97=VERTEX_POINT('',#340);
#98=VERTEX_POINT('',#346);
#99=VERTEX_POINT('',#350);
#100=EDGE_CURVE('',#86,#86,#70,.T.);
#101=EDGE_CURVE('',#87,#87,#71,.T.);
#102=EDGE_CURVE('',#88,#88,#72,.T.);
#103=EDGE_CURVE('',#89,#90,#73,.T.);
#104=EDGE_CURVE('',#90,#91,#74,.T.);
#105=EDGE_CURVE('',#91,#91,#75,.T.);
#106=EDGE_CURVE('',#90,#89,#76,.T.);
#107=EDGE_CURVE('',#92,#92,#77,.T.);
#108=EDGE_CURVE('',#92,#93,#78,.T.);
#109=EDGE_CURVE('',#93,#93,#79,.T.);
#110=EDGE_CURVE('',#94,#94,#80,.T.);
#111=EDGE_CURVE('',#94,#89,#15,.T.);
#112=EDGE_CURVE('',#95,#95,#81,.T.);
#113=EDGE_CURVE('',#95,#92,#16,.T.);
#114=EDGE_CURVE('',#96,#96,#82,.T.);
#115=EDGE_CURVE('',#96,#97,#17,.T.);
#116=EDGE_CURVE('',#97,#97,#83,.T.);
#117=EDGE_CURVE('',#91,#98,#18,.T.);
#118=EDGE_CURVE('',#98,#98,#84,.T.);
#119=EDGE_CURVE('',#99,#99,#85,.T.);
#120=EDGE_CURVE('',#86,#99,#19,.T.);
#121=ORIENTED_EDGE('',*,*,#100,.F.);
#122=ORIENTED_EDGE('',*,*,#101,.F.);
#123=ORIENTED_EDGE('',*,*,#102,.T.);
#124=ORIENTED_EDGE('',*,*,#103,.T.);
#125=ORIENTED_EDGE('',*,*,#104,.T.);
#126=ORIENTED_EDGE('',*,*,#105,.F.);
#127=ORIENTED_EDGE('',*,*,#104,.F.);
#128=ORIENTED_EDGE('',*,*,#106,.T.);
#129=ORIENTED_EDGE('',*,*,#107,.F.);
#130=ORIENTED_EDGE('',*,*,#108,.T.);
#131=ORIENTED_EDGE('',*,*,#109,.T.);
#132=ORIENTED_EDGE('',*,*,#108,.F.);
#133=ORIENTED_EDGE('',*,*,#110,.F.);
#134=ORIENTED_EDGE('',*,*,#111,.T.);
#135=ORIENTED_EDGE('',*,*,#106,.F.);
#136=ORIENTED_EDGE('',*,*,#103,.F.);
#137=ORIENTED_EDGE('',*,*,#111,.F.);
#138=ORIENTED_EDGE('',*,*,#109,.F.);
#139=ORIENTED_EDGE('',*,*,#110,.T.);
#140=ORIENTED_EDGE('',*,*,#112,.F.);
#141=ORIENTED_EDGE('',*,*,#113,.T.);
#142=ORIENTED_EDGE('',*,*,#107,.T.);
#143=ORIENTED_EDGE('',*,*,#113,.F.);
#144=ORIENTED_EDGE('',*,*,#101,.T.);
#145=ORIENTED_EDGE('',*,*,#114,.T.);
#146=ORIENTED_EDGE('',*,*,#114,.F.);
#147=ORIENTED_EDGE('',*,*,#115,.T.);
#148=ORIENTED_EDGE('',*,*,#116,.F.);
#149=ORIENTED_EDGE('',*,*,#115,.F.);
#150=ORIENTED_EDGE('',*,*,#116,.T.);
#151=ORIENTED_EDGE('',*,*,#102,.F.);
#152=ORIENTED_EDGE('',*,*,#112,.T.);
#153=ORIENTED_EDGE('',*,*,#105,.T.);
#154=ORIENTED_EDGE('',*,*,#117,.T.);
#155=ORIENTED_EDGE('',*,*,#118,.T.);
#156=ORIENTED_EDGE('',*,*,#117,.F.);
#157=ORIENTED_EDGE('',*,*,#118,.F.);
#158=ORIENTED_EDGE('',*,*,#119,.T.);
#159=ORIENTED_EDGE('',*,*,#100,.T.);
#160=ORIENTED_EDGE('',*,*,#120,.T.);
#161=ORIENTED_EDGE('',*,*,#119,.F.);
#162=ORIENTED_EDGE('',*,*,#120,.F.);
#163=PLANE('',#207);
#164=PLANE('',#210);
#165=PLANE('',#223);
#166=PLANE('',#226);
#167=PLANE('',#230);
#168=PLANE('',#231);
#169=PLANE('',#234);
#170=ADVANCED_FACE('',(#37,#32),#163,.T.);
#171=ADVANCED_FACE('',(#38),#164,.T.);
#172=ADVANCED_FACE('',(#39),#30,.F.);
#173=ADVANCED_FACE('',(#40),#31,.T.);
#174=ADVANCED_FACE('',(#41),#25,.F.);
#175=ADVANCED_FACE('',(#42,#33),#165,.T.);
#176=ADVANCED_FACE('',(#43),#26,.T.);
#177=ADVANCED_FACE('',(#44,#34),#166,.T.);
#178=ADVANCED_FACE('',(#45),#27,.F.);
#179=ADVANCED_FACE('',(#46,#35),#167,.T.);
#180=ADVANCED_FACE('',(#47),#168,.T.);
#181=ADVANCED_FACE('',(#48),#28,.T.);
#182=ADVANCED_FACE('',(#49,#36),#169,.T.);
#183=ADVANCED_FACE('',(#50),#29,.F.);
#184=CLOSED_SHELL('',(#170,#171,#172,#173,#174,#175,#176,#177,#178,#179,
#180,#181,#182,#183));
#185=DERIVED_UNIT_ELEMENT(#188,1.);
#186=DERIVED_UNIT_ELEMENT(#359,-3.);
#187=DIMENSIONAL_EXPONENTS(0.,1.,0.,0.,0.,0.,0.);
#188=(
CONVERSION_BASED_UNIT('gram',#190)
MASS_UNIT()
NAMED_UNIT(#187)
);
#189=(
MASS_UNIT()
NAMED_UNIT(*)
SI_UNIT(.KILO.,.GRAM.)
);
#190=MASS_MEASURE_WITH_UNIT(MASS_MEASURE(0.001),#189);
#191=DERIVED_UNIT((#185,#186));
#192=MEASURE_REPRESENTATION_ITEM('density measure',
POSITIVE_RATIO_MEASURE(0.),#191);
#193=PROPERTY_DEFINITION_REPRESENTATION(#198,#195);
#194=PROPERTY_DEFINITION_REPRESENTATION(#199,#196);
#195=REPRESENTATION('material name',(#197),#356);
#196=REPRESENTATION('density',(#192),#356);
#197=DESCRIPTIVE_REPRESENTATION_ITEM('ACC.TECHN. INFO',
'ACC.TECHN. INFO');
#198=PROPERTY_DEFINITION('material property','material name',#366);
#199=PROPERTY_DEFINITION('material property','density of part',#366);
#200=DATE_TIME_ROLE('creation_date');
#201=APPLIED_DATE_AND_TIME_ASSIGNMENT(#202,#200,(#366));
#202=DATE_AND_TIME(#203,#204);
#203=CALENDAR_DATE(2022,9,5);
#204=LOCAL_TIME(0,0,0.,#205);
#205=COORDINATED_UNIVERSAL_TIME_OFFSET(0,0,.BEHIND.);
#206=AXIS2_PLACEMENT_3D('placement',#304,#237,#238);
#207=AXIS2_PLACEMENT_3D('',#305,#239,#240);
#208=AXIS2_PLACEMENT_3D('',#307,#241,#242);
#209=AXIS2_PLACEMENT_3D('',#309,#243,#244);
#210=AXIS2_PLACEMENT_3D('',#310,#245,#246);
#211=AXIS2_PLACEMENT_3D('',#312,#247,#248);
#212=AXIS2_PLACEMENT_3D('',#313,#249,#250);
#213=AXIS2_PLACEMENT_3D('',#316,#251,#252);
#214=AXIS2_PLACEMENT_3D('',#318,#253,#254);
#215=AXIS2_PLACEMENT_3D('',#319,#255,#256);
#216=AXIS2_PLACEMENT_3D('',#320,#257,#258);
#217=AXIS2_PLACEMENT_3D('',#321,#259,#260);
#218=AXIS2_PLACEMENT_3D('',#323,#261,#262);
#219=AXIS2_PLACEMENT_3D('',#325,#263,#264);
#220=AXIS2_PLACEMENT_3D('',#326,#265,#266);
#221=AXIS2_PLACEMENT_3D('',#327,#267,#268);
#222=AXIS2_PLACEMENT_3D('',#329,#269,#270);
#223=AXIS2_PLACEMENT_3D('',#331,#272,#273);
#224=AXIS2_PLACEMENT_3D('',#332,#274,#275);
#225=AXIS2_PLACEMENT_3D('',#334,#276,#277);
#226=AXIS2_PLACEMENT_3D('',#336,#279,#280);
#227=AXIS2_PLACEMENT_3D('',#338,#281,#282);
#228=AXIS2_PLACEMENT_3D('',#339,#283,#284);
#229=AXIS2_PLACEMENT_3D('',#342,#286,#287);
#230=AXIS2_PLACEMENT_3D('',#343,#288,#289);
#231=AXIS2_PLACEMENT_3D('',#344,#290,#291);
#232=AXIS2_PLACEMENT_3D('',#345,#292,#293);
#233=AXIS2_PLACEMENT_3D('',#348,#295,#296);
#234=AXIS2_PLACEMENT_3D('',#349,#297,#298);
#235=AXIS2_PLACEMENT_3D('',#351,#299,#300);
#236=AXIS2_PLACEMENT_3D('',#352,#301,#302);
#237=DIRECTION('axis',(0.,0.,1.));
#238=DIRECTION('refdir',(1.,0.,0.));
#239=DIRECTION('center_axis',(-1.75073620538777E-16,0.,-1.));
#240=DIRECTION('ref_axis',(-1.,0.,1.75073620538777E-16));
#241=DIRECTION('center_axis',(1.75073620538777E-16,0.,1.));
#242=DIRECTION('ref_axis',(1.,0.,0.));
#243=DIRECTION('center_axis',(-1.62868628449E-10,-1.10281739042E-11,-1.));
#244=DIRECTION('ref_axis',(0.987688362815228,-0.156434324748036,-1.59138264048847E-10));
#245=DIRECTION('center_axis',(-1.75073620538777E-16,0.,-1.));
#246=DIRECTION('ref_axis',(-1.,0.,1.75073620538777E-16));
#247=DIRECTION('center_axis',(-1.62868628449E-10,-1.10281739042E-11,-1.));
#248=DIRECTION('ref_axis',(-1.,6.65056599144843E-9,1.62868628375656E-10));
#249=DIRECTION('center_axis',(6.12323399573677E-17,0.,1.));
#250=DIRECTION('ref_axis',(1.,0.,0.));
#251=DIRECTION('center_axis',(0.,0.,-1.));
#252=DIRECTION('ref_axis',(-1.,0.,0.));
#253=DIRECTION('center_axis',(-1.22464679914735E-16,1.,0.));
#254=DIRECTION('ref_axis',(-1.,-1.22464679914735E-16,0.));
#255=DIRECTION('center_axis',(0.,0.,-1.));
#256=DIRECTION('ref_axis',(1.,0.,0.));
#257=DIRECTION('center_axis',(0.,0.,-1.));
#258=DIRECTION('ref_axis',(-1.,0.,0.));
#259=DIRECTION('center_axis',(6.12323399573677E-17,0.,1.));
#260=DIRECTION('ref_axis',(1.,0.,0.));
#261=DIRECTION('center_axis',(0.,0.,1.));
#262=DIRECTION('ref_axis',(1.,0.,0.));
#263=DIRECTION('center_axis',(1.22464679914735E-16,-1.,0.));
#264=DIRECTION('ref_axis',(-1.,-1.22464679914735E-16,0.));
#265=DIRECTION('center_axis',(0.,0.,1.));
#266=DIRECTION('ref_axis',(1.,0.,0.));
#267=DIRECTION('center_axis',(0.,0.,-1.));
#268=DIRECTION('ref_axis',(-1.,0.,0.));
#269=DIRECTION('center_axis',(0.,0.,1.));
#270=DIRECTION('ref_axis',(-1.,0.,0.));
#271=DIRECTION('',(0.,0.,1.));
#272=DIRECTION('center_axis',(0.,0.,-1.));
#273=DIRECTION('ref_axis',(-1.,0.,0.));
#274=DIRECTION('center_axis',(0.,0.,1.));
#275=DIRECTION('ref_axis',(1.,0.,0.));
#276=DIRECTION('center_axis',(0.,0.,1.));
#277=DIRECTION('ref_axis',(1.,0.,0.));
#278=DIRECTION('',(0.,0.,-1.));
#279=DIRECTION('center_axis',(-1.62868628449E-10,-1.10281739042E-11,-1.));
#280=DIRECTION('ref_axis',(1.,-8.42769109128871E-21,-1.62868628449E-10));
#281=DIRECTION('center_axis',(1.62868628449E-10,1.10281739042E-11,1.));
#282=DIRECTION('ref_axis',(0.999999999999884,-4.82488100172952E-7,-1.62868623128018E-10));
#283=DIRECTION('center_axis',(1.62868628449E-10,1.10281739042E-11,1.));
#284=DIRECTION('ref_axis',(1.,-8.42769109128871E-21,-1.62868628449E-10));
#285=DIRECTION('',(1.62868628449E-10,1.10281739042E-11,1.));
#286=DIRECTION('center_axis',(-1.62868628449E-10,-1.10281739042E-11,-1.));
#287=DIRECTION('ref_axis',(-0.99999999999988,-4.89250128183933E-7,1.62868633844516E-10));
#288=DIRECTION('center_axis',(-1.62868628449E-10,-1.10281739042E-11,-1.));
#289=DIRECTION('ref_axis',(1.,-8.42769109128871E-21,-1.62868628449E-10));
#290=DIRECTION('center_axis',(0.,0.,1.));
#291=DIRECTION('ref_axis',(1.,0.,0.));
#292=DIRECTION('center_axis',(0.,0.,1.));
#293=DIRECTION('ref_axis',(1.,0.,0.));
#294=DIRECTION('',(0.,0.,-1.));
#295=DIRECTION('center_axis',(0.,0.,1.));
#296=DIRECTION('ref_axis',(1.,0.,0.));
#297=DIRECTION('center_axis',(0.,0.,-1.));
#298=DIRECTION('ref_axis',(-1.,0.,0.));
#299=DIRECTION('center_axis',(0.,0.,1.));
#300=DIRECTION('ref_axis',(1.,0.,0.));
#301=DIRECTION('center_axis',(0.,0.,1.));
#302=DIRECTION('ref_axis',(1.,0.,0.));
#303=DIRECTION('',(0.,0.,-1.));
#304=CARTESIAN_POINT('',(0.,0.,0.));
#305=CARTESIAN_POINT('Origin',(-17.8999987961217,0.,-72.9999999973383));
#306=CARTESIAN_POINT('',(-22.75,0.,-72.9999999973383));
#307=CARTESIAN_POINT('Origin',(0.,0.,-72.9999999973383));
#308=CARTESIAN_POINT('',(18.8648472205266,-2.98788766901162,-73.0000000032932));
#309=CARTESIAN_POINT('Origin',(-8.85994020883553E-7,7.99335754590212E-6,
-73.0000000002537));
#310=CARTESIAN_POINT('Origin',(-1.11022302462516E-14,0.,-64.0000038120383));
#311=CARTESIAN_POINT('',(13.4749933408925,1.07577473651069E-5,-64.0000038171483));
#312=CARTESIAN_POINT('Origin',(-4.51473447350217E-7,1.06681313141877E-5,
-64.0000038149537));
#313=CARTESIAN_POINT('Origin',(0.,0.,-173.735431043872));
#314=CARTESIAN_POINT('',(50.,-6.12323399573677E-15,-338.307603661238));
#315=CARTESIAN_POINT('',(-50.,0.,-338.307603661238));
#316=CARTESIAN_POINT('Origin',(0.,0.,-338.307603661238));
#317=CARTESIAN_POINT('',(-24.75,3.0310008278897E-15,-3.52545043168821));
#318=CARTESIAN_POINT('Origin',(0.,0.,-173.735431043872));
#319=CARTESIAN_POINT('Origin',(0.,0.,-3.52545043168821));
#320=CARTESIAN_POINT('Origin',(0.,0.,-338.307603661238));
#321=CARTESIAN_POINT('Origin',(0.,0.,-173.735431043872));
#322=CARTESIAN_POINT('',(-24.75,-3.0310008278897E-15,-0.494450037644754));
#323=CARTESIAN_POINT('Origin',(0.,0.,-0.494450037644754));
#324=CARTESIAN_POINT('',(-55.,0.,-339.867908302234));
#325=CARTESIAN_POINT('Origin',(0.,0.,-173.735431043872));
#326=CARTESIAN_POINT('Origin',(0.,0.,-339.867908302234));
#327=CARTESIAN_POINT('Origin',(0.,0.,-329.867908302234));
#328=CARTESIAN_POINT('',(50.,-6.12323399573677E-15,-339.867908302234));
#329=CARTESIAN_POINT('Origin',(0.,0.,-339.867908302234));
#330=CARTESIAN_POINT('',(50.,-6.12323399573677E-15,-329.867908302234));
#331=CARTESIAN_POINT('Origin',(55.,0.,-339.867908302234));
#332=CARTESIAN_POINT('Origin',(0.,0.,0.499999999999979));
#333=CARTESIAN_POINT('',(-24.75,-3.0310008278897E-15,0.99999999999997));
#334=CARTESIAN_POINT('Origin',(0.,0.,0.99999999999997));
#335=CARTESIAN_POINT('',(-24.75,-3.0310008278897E-15,0.499999999999979));
#336=CARTESIAN_POINT('Origin',(-19.3878047034734,-19.3035670186516,-72.9999999968831));
#337=CARTESIAN_POINT('',(-17.8999994327734,1.07576351303274E-5,-72.9999999973383));
#338=CARTESIAN_POINT('Origin',(-6.42321797596553E-7,1.93941902655721E-5,
-73.0000000002537));
#339=CARTESIAN_POINT('Origin',(-4.48336220904002E-7,1.07576373477482E-5,
-74.0000000002537));
#340=CARTESIAN_POINT('',(-17.8999981579075,1.07577476272532E-5,-64.0000038120383));
#341=CARTESIAN_POINT('',(-17.8999981595362,1.07576373455562E-5,-73.9999999973383));
#342=CARTESIAN_POINT('Origin',(-7.70207403911807E-7,1.95153360572252E-5,
-64.0000038149537));
#343=CARTESIAN_POINT('Origin',(-17.9000224583075,-18.0815700682524,-64.0000038118389));
#344=CARTESIAN_POINT('Origin',(3.49999999999998,0.,0.999999999999972));
#345=CARTESIAN_POINT('Origin',(0.,0.,0.499999999999979));
#346=CARTESIAN_POINT('',(-24.75,0.,-79.));
#347=CARTESIAN_POINT('',(-24.75,-3.0310008278897E-15,0.499999999999979));
#348=CARTESIAN_POINT('Origin',(0.,0.,-79.));
#349=CARTESIAN_POINT('Origin',(24.75,0.,-79.));
#350=CARTESIAN_POINT('',(-22.75,-2.78607146806023E-15,-79.));
#351=CARTESIAN_POINT('Origin',(0.,0.,-79.));
#352=CARTESIAN_POINT('Origin',(0.,0.,-49.5));
#353=CARTESIAN_POINT('',(-22.75,-2.78607146806023E-15,-49.5));
#354=UNCERTAINTY_MEASURE_WITH_UNIT(LENGTH_MEASURE(0.01),#358,
'DISTANCE_ACCURACY_VALUE',
'Maximum model space distance between geometric entities at asserted c
onnectivities');
#355=UNCERTAINTY_MEASURE_WITH_UNIT(LENGTH_MEASURE(0.01),#358,
'DISTANCE_ACCURACY_VALUE',
'Maximum model space distance between geometric entities at asserted c
onnectivities');
#356=(
GEOMETRIC_REPRESENTATION_CONTEXT(3)
GLOBAL_UNCERTAINTY_ASSIGNED_CONTEXT((#354))
GLOBAL_UNIT_ASSIGNED_CONTEXT((#358,#360,#361))
REPRESENTATION_CONTEXT('','3D')
);
#357=(
GEOMETRIC_REPRESENTATION_CONTEXT(3)
GLOBAL_UNCERTAINTY_ASSIGNED_CONTEXT((#355))
GLOBAL_UNIT_ASSIGNED_CONTEXT((#358,#360,#361))
REPRESENTATION_CONTEXT('','3D')
);
#358=(
LENGTH_UNIT()
NAMED_UNIT(*)
SI_UNIT(.MILLI.,.METRE.)
);
#359=(
LENGTH_UNIT()
NAMED_UNIT(*)
SI_UNIT(.CENTI.,.METRE.)
);
#360=(
NAMED_UNIT(*)
PLANE_ANGLE_UNIT()
SI_UNIT($,.RADIAN.)
);
#361=(
NAMED_UNIT(*)
SI_UNIT($,.STERADIAN.)
SOLID_ANGLE_UNIT()
);
#362=SHAPE_DEFINITION_REPRESENTATION(#363,#364);
#363=PRODUCT_DEFINITION_SHAPE('',$,#366);
#364=SHAPE_REPRESENTATION('',(#206),#356);
#365=PRODUCT_DEFINITION_CONTEXT('part definition',#370,'design');
#366=PRODUCT_DEFINITION('ENG000026005','ENG000026005',#367,#365);
#367=PRODUCT_DEFINITION_FORMATION('00',$,#372);
#368=PRODUCT_RELATED_PRODUCT_CATEGORY('ENG000026005','ENG000026005',(#372));
#369=APPLICATION_PROTOCOL_DEFINITION('international standard',
'automotive_design',2009,#370);
#370=APPLICATION_CONTEXT(
'Core Data for Automotive Mechanical Design Process');
#371=PRODUCT_CONTEXT('part definition',#370,'mechanical');
#372=PRODUCT('ENG000026005','ENG000026005','SIMPLE',(#371));
#373=PRESENTATION_STYLE_ASSIGNMENT((#374));
#374=SURFACE_STYLE_USAGE(.BOTH.,#377);
#375=SURFACE_STYLE_RENDERING_WITH_PROPERTIES($,#381,(#376));
#376=SURFACE_STYLE_TRANSPARENT(0.);
#377=SURFACE_SIDE_STYLE('',(#378,#375));
#378=SURFACE_STYLE_FILL_AREA(#379);
#379=FILL_AREA_STYLE('',(#380));
#380=FILL_AREA_STYLE_COLOUR('',#381);
#381=COLOUR_RGB('',1.,1.,1.);
ENDSEC;
END-ISO-10303-21;
