ISO-10303-21;
HEADER;
/* Generated by software containing ST-Developer
 * from STEP Tools, Inc. (www.steptools.com) 
 */

FILE_DESCRIPTION(
/* description */ ('This is a sample STEP configuration'),
/* implementation_level */ '2;1');

FILE_NAME(
/* name */ '636-02900xxxxxxxx SIMPLE.ipt_Rev_00.1.stp',
/* time_stamp */ '2023-04-27T16:22:08+02:00',
/* author */ ('powerJobs'),
/* organization */ ('coolOrange'),
/* preprocessor_version */ 'ST-DEVELOPER v19.2',
/* originating_system */ 'Autodesk Inventor 2023',
/* authorisation */ '');

FILE_SCHEMA (('AUTOMOTIVE_DESIGN { 1 0 10303 214 3 1 1 }'));
ENDSEC;

DATA;
#10=MECHANICAL_DESIGN_GEOMETRIC_PRESENTATION_REPRESENTATION('',(#13),#535);
#11=SHAPE_REPRESENTATION_RELATIONSHIP('SRR','None',#542,#12);
#12=ADVANCED_BREP_SHAPE_REPRESENTATION('',(#14),#534);
#13=STYLED_ITEM('',(#551),#14);
#14=MANIFOLD_SOLID_BREP('Volumenk\X\F6rper1',#280);
#15=FACE_BOUND('',#50,.T.);
#16=FACE_BOUND('',#52,.T.);
#17=FACE_BOUND('',#55,.T.);
#18=FACE_BOUND('',#58,.T.);
#19=FACE_BOUND('',#64,.T.);
#20=FACE_BOUND('',#67,.T.);
#21=PLANE('',#322);
#22=PLANE('',#324);
#23=PLANE('',#327);
#24=PLANE('',#329);
#25=PLANE('',#335);
#26=PLANE('',#340);
#27=PLANE('',#341);
#28=PLANE('',#345);
#29=FACE_OUTER_BOUND('',#46,.T.);
#30=FACE_OUTER_BOUND('',#47,.T.);
#31=FACE_OUTER_BOUND('',#48,.T.);
#32=FACE_OUTER_BOUND('',#49,.T.);
#33=FACE_OUTER_BOUND('',#51,.T.);
#34=FACE_OUTER_BOUND('',#53,.T.);
#35=FACE_OUTER_BOUND('',#54,.T.);
#36=FACE_OUTER_BOUND('',#56,.T.);
#37=FACE_OUTER_BOUND('',#57,.T.);
#38=FACE_OUTER_BOUND('',#59,.T.);
#39=FACE_OUTER_BOUND('',#60,.T.);
#40=FACE_OUTER_BOUND('',#61,.T.);
#41=FACE_OUTER_BOUND('',#62,.T.);
#42=FACE_OUTER_BOUND('',#63,.T.);
#43=FACE_OUTER_BOUND('',#65,.T.);
#44=FACE_OUTER_BOUND('',#66,.T.);
#45=FACE_OUTER_BOUND('',#68,.T.);
#46=EDGE_LOOP('',(#180,#181,#182,#183,#184,#185,#186,#187));
#47=EDGE_LOOP('',(#188,#189,#190,#191,#192,#193,#194,#195));
#48=EDGE_LOOP('',(#196,#197,#198,#199,#200,#201));
#49=EDGE_LOOP('',(#202));
#50=EDGE_LOOP('',(#203));
#51=EDGE_LOOP('',(#204));
#52=EDGE_LOOP('',(#205));
#53=EDGE_LOOP('',(#206));
#54=EDGE_LOOP('',(#207));
#55=EDGE_LOOP('',(#208,#209));
#56=EDGE_LOOP('',(#210,#211,#212,#213,#214,#215));
#57=EDGE_LOOP('',(#216,#217));
#58=EDGE_LOOP('',(#218));
#59=EDGE_LOOP('',(#219,#220,#221,#222,#223,#224,#225,#226));
#60=EDGE_LOOP('',(#227,#228,#229,#230,#231,#232,#233,#234));
#61=EDGE_LOOP('',(#235,#236,#237,#238,#239,#240));
#62=EDGE_LOOP('',(#241));
#63=EDGE_LOOP('',(#242));
#64=EDGE_LOOP('',(#243));
#65=EDGE_LOOP('',(#244,#245,#246,#247));
#66=EDGE_LOOP('',(#248));
#67=EDGE_LOOP('',(#249));
#68=EDGE_LOOP('',(#250,#251,#252,#253));
#69=LINE('',#457,#78);
#70=LINE('',#471,#79);
#71=LINE('',#485,#80);
#72=LINE('',#506,#81);
#73=LINE('',#512,#82);
#74=LINE('',#514,#83);
#75=LINE('',#517,#84);
#76=LINE('',#525,#85);
#77=LINE('',#531,#86);
#78=VECTOR('',#356,12.3300056812457);
#79=VECTOR('',#371,12.3300056812457);
#80=VECTOR('',#386,12.3300056812457);
#81=VECTOR('',#413,17.8999977112);
#82=VECTOR('',#422,12.3299999237);
#83=VECTOR('',#425,12.3299999237);
#84=VECTOR('',#428,12.3300027847);
#85=VECTOR('',#439,24.75);
#86=VECTOR('',#448,22.75);
#87=CIRCLE('',#304,12.330002926);
#88=CIRCLE('',#305,12.330002926);
#89=CIRCLE('',#306,12.3300019284);
#90=CIRCLE('',#307,12.3300019284);
#91=CIRCLE('',#308,12.3300019284);
#92=CIRCLE('',#309,12.330002926);
#93=CIRCLE('',#311,12.3300022526);
#94=CIRCLE('',#312,12.3300022526);
#95=CIRCLE('',#313,12.3299999237);
#96=CIRCLE('',#314,12.3299999237);
#97=CIRCLE('',#315,12.3299999237);
#98=CIRCLE('',#316,12.3300022526);
#99=CIRCLE('',#318,12.3300022525);
#100=CIRCLE('',#319,12.3300022525);
#101=CIRCLE('',#320,12.3300085777917);
#102=CIRCLE('',#321,12.3300022525);
#103=CIRCLE('',#323,13.4749937514);
#104=CIRCLE('',#325,22.7500000000007);
#105=CIRCLE('',#326,19.1000003815);
#106=CIRCLE('',#328,3.49999999999998);
#107=CIRCLE('',#330,17.8999981538);
#108=CIRCLE('',#331,17.8999981538);
#109=CIRCLE('',#333,17.8999980347);
#110=CIRCLE('',#334,17.8999980347);
#111=CIRCLE('',#339,12.3300027847);
#112=CIRCLE('',#342,24.75);
#113=CIRCLE('',#344,24.75);
#114=CIRCLE('',#346,22.75);
#115=VERTEX_POINT('',#451);
#116=VERTEX_POINT('',#452);
#117=VERTEX_POINT('',#454);
#118=VERTEX_POINT('',#456);
#119=VERTEX_POINT('',#458);
#120=VERTEX_POINT('',#460);
#121=VERTEX_POINT('',#465);
#122=VERTEX_POINT('',#466);
#123=VERTEX_POINT('',#468);
#124=VERTEX_POINT('',#470);
#125=VERTEX_POINT('',#472);
#126=VERTEX_POINT('',#474);
#127=VERTEX_POINT('',#479);
#128=VERTEX_POINT('',#480);
#129=VERTEX_POINT('',#482);
#130=VERTEX_POINT('',#484);
#131=VERTEX_POINT('',#489);
#132=VERTEX_POINT('',#492);
#133=VERTEX_POINT('',#494);
#134=VERTEX_POINT('',#497);
#135=VERTEX_POINT('',#500);
#136=VERTEX_POINT('',#501);
#137=VERTEX_POINT('',#505);
#138=VERTEX_POINT('',#507);
#139=VERTEX_POINT('',#516);
#140=VERTEX_POINT('',#521);
#141=VERTEX_POINT('',#524);
#142=VERTEX_POINT('',#528);
#143=EDGE_CURVE('',#115,#116,#87,.T.);
#144=EDGE_CURVE('',#117,#115,#88,.T.);
#145=EDGE_CURVE('',#117,#118,#69,.T.);
#146=EDGE_CURVE('',#118,#119,#89,.T.);
#147=EDGE_CURVE('',#119,#120,#90,.T.);
#148=EDGE_CURVE('',#120,#118,#91,.T.);
#149=EDGE_CURVE('',#116,#117,#92,.T.);
#150=EDGE_CURVE('',#121,#122,#93,.T.);
#151=EDGE_CURVE('',#123,#121,#94,.T.);
#152=EDGE_CURVE('',#123,#124,#70,.T.);
#153=EDGE_CURVE('',#124,#125,#95,.T.);
#154=EDGE_CURVE('',#125,#126,#96,.T.);
#155=EDGE_CURVE('',#126,#124,#97,.T.);
#156=EDGE_CURVE('',#122,#123,#98,.T.);
#157=EDGE_CURVE('',#127,#128,#99,.T.);
#158=EDGE_CURVE('',#129,#127,#100,.T.);
#159=EDGE_CURVE('',#129,#130,#71,.T.);
#160=EDGE_CURVE('',#130,#130,#101,.T.);
#161=EDGE_CURVE('',#128,#129,#102,.T.);
#162=EDGE_CURVE('',#131,#131,#103,.T.);
#163=EDGE_CURVE('',#132,#132,#104,.T.);
#164=EDGE_CURVE('',#133,#133,#105,.T.);
#165=EDGE_CURVE('',#134,#134,#106,.T.);
#166=EDGE_CURVE('',#135,#136,#107,.T.);
#167=EDGE_CURVE('',#136,#135,#108,.T.);
#168=EDGE_CURVE('',#136,#137,#72,.T.);
#169=EDGE_CURVE('',#138,#137,#109,.T.);
#170=EDGE_CURVE('',#137,#138,#110,.T.);
#171=EDGE_CURVE('',#128,#126,#73,.T.);
#172=EDGE_CURVE('',#122,#120,#74,.T.);
#173=EDGE_CURVE('',#116,#139,#75,.T.);
#174=EDGE_CURVE('',#139,#139,#111,.T.);
#175=EDGE_CURVE('',#140,#140,#112,.T.);
#176=EDGE_CURVE('',#140,#141,#76,.T.);
#177=EDGE_CURVE('',#141,#141,#113,.T.);
#178=EDGE_CURVE('',#142,#142,#114,.T.);
#179=EDGE_CURVE('',#132,#142,#77,.T.);
#180=ORIENTED_EDGE('',*,*,#143,.F.);
#181=ORIENTED_EDGE('',*,*,#144,.F.);
#182=ORIENTED_EDGE('',*,*,#145,.T.);
#183=ORIENTED_EDGE('',*,*,#146,.T.);
#184=ORIENTED_EDGE('',*,*,#147,.T.);
#185=ORIENTED_EDGE('',*,*,#148,.T.);
#186=ORIENTED_EDGE('',*,*,#145,.F.);
#187=ORIENTED_EDGE('',*,*,#149,.F.);
#188=ORIENTED_EDGE('',*,*,#150,.F.);
#189=ORIENTED_EDGE('',*,*,#151,.F.);
#190=ORIENTED_EDGE('',*,*,#152,.T.);
#191=ORIENTED_EDGE('',*,*,#153,.T.);
#192=ORIENTED_EDGE('',*,*,#154,.T.);
#193=ORIENTED_EDGE('',*,*,#155,.T.);
#194=ORIENTED_EDGE('',*,*,#152,.F.);
#195=ORIENTED_EDGE('',*,*,#156,.F.);
#196=ORIENTED_EDGE('',*,*,#157,.F.);
#197=ORIENTED_EDGE('',*,*,#158,.F.);
#198=ORIENTED_EDGE('',*,*,#159,.T.);
#199=ORIENTED_EDGE('',*,*,#160,.F.);
#200=ORIENTED_EDGE('',*,*,#159,.F.);
#201=ORIENTED_EDGE('',*,*,#161,.F.);
#202=ORIENTED_EDGE('',*,*,#162,.T.);
#203=ORIENTED_EDGE('',*,*,#160,.T.);
#204=ORIENTED_EDGE('',*,*,#163,.F.);
#205=ORIENTED_EDGE('',*,*,#164,.F.);
#206=ORIENTED_EDGE('',*,*,#165,.T.);
#207=ORIENTED_EDGE('',*,*,#164,.T.);
#208=ORIENTED_EDGE('',*,*,#166,.T.);
#209=ORIENTED_EDGE('',*,*,#167,.T.);
#210=ORIENTED_EDGE('',*,*,#166,.F.);
#211=ORIENTED_EDGE('',*,*,#167,.F.);
#212=ORIENTED_EDGE('',*,*,#168,.T.);
#213=ORIENTED_EDGE('',*,*,#169,.F.);
#214=ORIENTED_EDGE('',*,*,#170,.F.);
#215=ORIENTED_EDGE('',*,*,#168,.F.);
#216=ORIENTED_EDGE('',*,*,#169,.T.);
#217=ORIENTED_EDGE('',*,*,#170,.T.);
#218=ORIENTED_EDGE('',*,*,#162,.F.);
#219=ORIENTED_EDGE('',*,*,#157,.T.);
#220=ORIENTED_EDGE('',*,*,#171,.T.);
#221=ORIENTED_EDGE('',*,*,#154,.F.);
#222=ORIENTED_EDGE('',*,*,#153,.F.);
#223=ORIENTED_EDGE('',*,*,#155,.F.);
#224=ORIENTED_EDGE('',*,*,#171,.F.);
#225=ORIENTED_EDGE('',*,*,#161,.T.);
#226=ORIENTED_EDGE('',*,*,#158,.T.);
#227=ORIENTED_EDGE('',*,*,#150,.T.);
#228=ORIENTED_EDGE('',*,*,#172,.T.);
#229=ORIENTED_EDGE('',*,*,#147,.F.);
#230=ORIENTED_EDGE('',*,*,#146,.F.);
#231=ORIENTED_EDGE('',*,*,#148,.F.);
#232=ORIENTED_EDGE('',*,*,#172,.F.);
#233=ORIENTED_EDGE('',*,*,#156,.T.);
#234=ORIENTED_EDGE('',*,*,#151,.T.);
#235=ORIENTED_EDGE('',*,*,#143,.T.);
#236=ORIENTED_EDGE('',*,*,#173,.T.);
#237=ORIENTED_EDGE('',*,*,#174,.F.);
#238=ORIENTED_EDGE('',*,*,#173,.F.);
#239=ORIENTED_EDGE('',*,*,#149,.T.);
#240=ORIENTED_EDGE('',*,*,#144,.T.);
#241=ORIENTED_EDGE('',*,*,#174,.T.);
#242=ORIENTED_EDGE('',*,*,#175,.T.);
#243=ORIENTED_EDGE('',*,*,#165,.F.);
#244=ORIENTED_EDGE('',*,*,#175,.F.);
#245=ORIENTED_EDGE('',*,*,#176,.T.);
#246=ORIENTED_EDGE('',*,*,#177,.T.);
#247=ORIENTED_EDGE('',*,*,#176,.F.);
#248=ORIENTED_EDGE('',*,*,#177,.F.);
#249=ORIENTED_EDGE('',*,*,#178,.T.);
#250=ORIENTED_EDGE('',*,*,#163,.T.);
#251=ORIENTED_EDGE('',*,*,#179,.T.);
#252=ORIENTED_EDGE('',*,*,#178,.F.);
#253=ORIENTED_EDGE('',*,*,#179,.F.);
#254=CYLINDRICAL_SURFACE('',#303,12.3300056812457);
#255=CYLINDRICAL_SURFACE('',#310,12.3300056812457);
#256=CYLINDRICAL_SURFACE('',#317,12.3300056812457);
#257=CYLINDRICAL_SURFACE('',#332,17.8999977112);
#258=CYLINDRICAL_SURFACE('',#336,12.3299999237);
#259=CYLINDRICAL_SURFACE('',#337,12.3299999237);
#260=CYLINDRICAL_SURFACE('',#338,12.3300027847);
#261=CYLINDRICAL_SURFACE('',#343,24.75);
#262=CYLINDRICAL_SURFACE('',#347,22.75);
#263=ADVANCED_FACE('',(#29),#254,.F.);
#264=ADVANCED_FACE('',(#30),#255,.F.);
#265=ADVANCED_FACE('',(#31),#256,.F.);
#266=ADVANCED_FACE('',(#32,#15),#21,.T.);
#267=ADVANCED_FACE('',(#33,#16),#22,.T.);
#268=ADVANCED_FACE('',(#34),#23,.T.);
#269=ADVANCED_FACE('',(#35,#17),#24,.T.);
#270=ADVANCED_FACE('',(#36),#257,.F.);
#271=ADVANCED_FACE('',(#37,#18),#25,.T.);
#272=ADVANCED_FACE('',(#38),#258,.F.);
#273=ADVANCED_FACE('',(#39),#259,.F.);
#274=ADVANCED_FACE('',(#40),#260,.F.);
#275=ADVANCED_FACE('',(#41),#26,.T.);
#276=ADVANCED_FACE('',(#42,#19),#27,.T.);
#277=ADVANCED_FACE('',(#43),#261,.T.);
#278=ADVANCED_FACE('',(#44,#20),#28,.T.);
#279=ADVANCED_FACE('',(#45),#262,.F.);
#280=CLOSED_SHELL('',(#263,#264,#265,#266,#267,#268,#269,#270,#271,#272,
#273,#274,#275,#276,#277,#278,#279));
#281=DERIVED_UNIT_ELEMENT(#284,1.);
#282=DERIVED_UNIT_ELEMENT(#537,-3.);
#283=DIMENSIONAL_EXPONENTS(0.,1.,0.,0.,0.,0.,0.);
#284=(
CONVERSION_BASED_UNIT('gram',#286)
MASS_UNIT()
NAMED_UNIT(#283)
);
#285=(
MASS_UNIT()
NAMED_UNIT(*)
SI_UNIT(.KILO.,.GRAM.)
);
#286=MASS_MEASURE_WITH_UNIT(MASS_MEASURE(0.001),#285);
#287=DERIVED_UNIT((#281,#282));
#288=MEASURE_REPRESENTATION_ITEM('density measure',
POSITIVE_RATIO_MEASURE(0.),#287);
#289=PROPERTY_DEFINITION_REPRESENTATION(#294,#291);
#290=PROPERTY_DEFINITION_REPRESENTATION(#295,#292);
#291=REPRESENTATION('material name',(#293),#534);
#292=REPRESENTATION('density',(#288),#534);
#293=DESCRIPTIVE_REPRESENTATION_ITEM('ACC.TECHN. INFO',
'ACC.TECHN. INFO');
#294=PROPERTY_DEFINITION('material property','material name',#544);
#295=PROPERTY_DEFINITION('material property','density of part',#544);
#296=DATE_TIME_ROLE('creation_date');
#297=APPLIED_DATE_AND_TIME_ASSIGNMENT(#298,#296,(#544));
#298=DATE_AND_TIME(#299,#300);
#299=CALENDAR_DATE(2022,9,5);
#300=LOCAL_TIME(0,0,0.,#301);
#301=COORDINATED_UNIVERSAL_TIME_OFFSET(0,0,.BEHIND.);
#302=AXIS2_PLACEMENT_3D('placement',#449,#348,#349);
#303=AXIS2_PLACEMENT_3D('',#450,#350,#351);
#304=AXIS2_PLACEMENT_3D('',#453,#352,#353);
#305=AXIS2_PLACEMENT_3D('',#455,#354,#355);
#306=AXIS2_PLACEMENT_3D('',#459,#357,#358);
#307=AXIS2_PLACEMENT_3D('',#461,#359,#360);
#308=AXIS2_PLACEMENT_3D('',#462,#361,#362);
#309=AXIS2_PLACEMENT_3D('',#463,#363,#364);
#310=AXIS2_PLACEMENT_3D('',#464,#365,#366);
#311=AXIS2_PLACEMENT_3D('',#467,#367,#368);
#312=AXIS2_PLACEMENT_3D('',#469,#369,#370);
#313=AXIS2_PLACEMENT_3D('',#473,#372,#373);
#314=AXIS2_PLACEMENT_3D('',#475,#374,#375);
#315=AXIS2_PLACEMENT_3D('',#476,#376,#377);
#316=AXIS2_PLACEMENT_3D('',#477,#378,#379);
#317=AXIS2_PLACEMENT_3D('',#478,#380,#381);
#318=AXIS2_PLACEMENT_3D('',#481,#382,#383);
#319=AXIS2_PLACEMENT_3D('',#483,#384,#385);
#320=AXIS2_PLACEMENT_3D('',#486,#387,#388);
#321=AXIS2_PLACEMENT_3D('',#487,#389,#390);
#322=AXIS2_PLACEMENT_3D('',#488,#391,#392);
#323=AXIS2_PLACEMENT_3D('',#490,#393,#394);
#324=AXIS2_PLACEMENT_3D('',#491,#395,#396);
#325=AXIS2_PLACEMENT_3D('',#493,#397,#398);
#326=AXIS2_PLACEMENT_3D('',#495,#399,#400);
#327=AXIS2_PLACEMENT_3D('',#496,#401,#402);
#328=AXIS2_PLACEMENT_3D('',#498,#403,#404);
#329=AXIS2_PLACEMENT_3D('',#499,#405,#406);
#330=AXIS2_PLACEMENT_3D('',#502,#407,#408);
#331=AXIS2_PLACEMENT_3D('',#503,#409,#410);
#332=AXIS2_PLACEMENT_3D('',#504,#411,#412);
#333=AXIS2_PLACEMENT_3D('',#508,#414,#415);
#334=AXIS2_PLACEMENT_3D('',#509,#416,#417);
#335=AXIS2_PLACEMENT_3D('',#510,#418,#419);
#336=AXIS2_PLACEMENT_3D('',#511,#420,#421);
#337=AXIS2_PLACEMENT_3D('',#513,#423,#424);
#338=AXIS2_PLACEMENT_3D('',#515,#426,#427);
#339=AXIS2_PLACEMENT_3D('',#518,#429,#430);
#340=AXIS2_PLACEMENT_3D('',#519,#431,#432);
#341=AXIS2_PLACEMENT_3D('',#520,#433,#434);
#342=AXIS2_PLACEMENT_3D('',#522,#435,#436);
#343=AXIS2_PLACEMENT_3D('',#523,#437,#438);
#344=AXIS2_PLACEMENT_3D('',#526,#440,#441);
#345=AXIS2_PLACEMENT_3D('',#527,#442,#443);
#346=AXIS2_PLACEMENT_3D('',#529,#444,#445);
#347=AXIS2_PLACEMENT_3D('',#530,#446,#447);
#348=DIRECTION('axis',(0.,0.,1.));
#349=DIRECTION('refdir',(1.,0.,0.));
#350=DIRECTION('center_axis',(0.,-2.50027092475084E-7,0.999999999999969));
#351=DIRECTION('ref_axis',(0.,-0.999999999999969,-2.50027092475084E-7));
#352=DIRECTION('center_axis',(-1.62868628449E-10,-1.10281739042E-11,-1.));
#353=DIRECTION('ref_axis',(-0.999999999999999,3.30852893512084E-8,1.6286862808413E-10));
#354=DIRECTION('center_axis',(-1.62868628449E-10,-1.10281739042E-11,-1.));
#355=DIRECTION('ref_axis',(-0.999999999999999,3.30852893512084E-8,1.6286862808413E-10));
#356=DIRECTION('',(0.,2.50027092475084E-7,-0.999999999999969));
#357=DIRECTION('center_axis',(-1.62868628449E-10,-1.10281739042E-11,-1.));
#358=DIRECTION('ref_axis',(-0.999999999999772,-6.76051877147837E-7,1.6286863590458E-10));
#359=DIRECTION('center_axis',(-1.62868628449E-10,-1.10281739042E-11,-1.));
#360=DIRECTION('ref_axis',(0.999999999999772,6.75614511173837E-7,-1.62868635899757E-10));
#361=DIRECTION('center_axis',(-1.62868628449E-10,-1.10281739042E-11,-1.));
#362=DIRECTION('ref_axis',(-0.999999999999772,-6.76051877147837E-7,1.6286863590458E-10));
#363=DIRECTION('center_axis',(-1.62868628449E-10,-1.10281739042E-11,-1.));
#364=DIRECTION('ref_axis',(-0.999999999999999,3.30852893512084E-8,1.6286862808413E-10));
#365=DIRECTION('center_axis',(0.,-2.50027092475084E-7,0.999999999999969));
#366=DIRECTION('ref_axis',(0.,-0.999999999999969,-2.50027092475084E-7));
#367=DIRECTION('center_axis',(-1.62868628449E-10,-1.10281739042E-11,-1.));
#368=DIRECTION('ref_axis',(0.999999999999789,6.49273695491855E-7,-1.62868635609269E-10));
#369=DIRECTION('center_axis',(-1.62868628449E-10,-1.10281739042E-11,-1.));
#370=DIRECTION('ref_axis',(-0.999999999999789,-6.49701383991854E-7,1.62868635613985E-10));
#371=DIRECTION('',(0.,2.50027092475084E-7,-0.999999999999969));
#372=DIRECTION('center_axis',(-1.62868628449E-10,-1.10281739042E-11,-1.));
#373=DIRECTION('ref_axis',(-0.999999999999649,-8.37764276574698E-7,1.62868637687953E-10));
#374=DIRECTION('center_axis',(-1.62868628449E-10,-1.10281739042E-11,-1.));
#375=DIRECTION('ref_axis',(0.999999999999649,8.37509006689698E-7,-1.62868637685138E-10));
#376=DIRECTION('center_axis',(-1.62868628449E-10,-1.10281739042E-11,-1.));
#377=DIRECTION('ref_axis',(-0.999999999999649,-8.37764276574698E-7,1.62868637687953E-10));
#378=DIRECTION('center_axis',(-1.62868628449E-10,-1.10281739042E-11,-1.));
#379=DIRECTION('ref_axis',(-0.999999999999789,-6.49701383991854E-7,1.62868635613985E-10));
#380=DIRECTION('center_axis',(0.,-2.50027092475084E-7,0.999999999999969));
#381=DIRECTION('ref_axis',(0.,-0.999999999999969,-2.50027092475084E-7));
#382=DIRECTION('center_axis',(-1.62868628449E-10,-1.10281739042E-11,-1.));
#383=DIRECTION('ref_axis',(0.999999999999789,6.49247405534855E-7,-1.62868635608979E-10));
#384=DIRECTION('center_axis',(-1.62868628449E-10,-1.10281739042E-11,-1.));
#385=DIRECTION('ref_axis',(-0.999999999999789,-6.49679593527855E-7,1.62868635613745E-10));
#386=DIRECTION('',(0.,2.50027092475084E-7,-0.999999999999969));
#387=DIRECTION('center_axis',(0.,-2.50027092475084E-7,0.999999999999969));
#388=DIRECTION('ref_axis',(1.,0.,0.));
#389=DIRECTION('center_axis',(-1.62868628449E-10,-1.10281739042E-11,-1.));
#390=DIRECTION('ref_axis',(-0.999999999999789,-6.49679593527855E-7,1.62868635613745E-10));
#391=DIRECTION('center_axis',(0.,2.50027092475084E-7,-0.999999999999969));
#392=DIRECTION('ref_axis',(-1.,0.,0.));
#393=DIRECTION('center_axis',(-1.62868628449E-10,-1.10281739042E-11,-1.));
#394=DIRECTION('ref_axis',(-1.,6.65056599144843E-9,1.62868628375656E-10));
#395=DIRECTION('center_axis',(0.,2.50027092475084E-7,-0.999999999999969));
#396=DIRECTION('ref_axis',(-1.,0.,0.));
#397=DIRECTION('center_axis',(0.,-2.50027092475084E-7,0.999999999999969));
#398=DIRECTION('ref_axis',(0.,0.999999999999969,2.50027092475084E-7));
#399=DIRECTION('center_axis',(-1.62868628449E-10,-1.10281739042E-11,-1.));
#400=DIRECTION('ref_axis',(0.987688362815228,-0.156434324748036,-1.59138264048847E-10));
#401=DIRECTION('center_axis',(0.,-2.50027092475084E-7,0.999999999999969));
#402=DIRECTION('ref_axis',(1.,0.,0.));
#403=DIRECTION('center_axis',(0.,0.,1.));
#404=DIRECTION('ref_axis',(1.,0.,0.));
#405=DIRECTION('center_axis',(-1.62868628449E-10,-1.10281739042E-11,-1.));
#406=DIRECTION('ref_axis',(1.,-8.42769109128871E-21,-1.62868628449E-10));
#407=DIRECTION('center_axis',(1.62868628449E-10,1.10281739042E-11,1.));
#408=DIRECTION('ref_axis',(0.999999999999884,-4.82488100172952E-7,-1.62868623128018E-10));
#409=DIRECTION('center_axis',(1.62868628449E-10,1.10281739042E-11,1.));
#410=DIRECTION('ref_axis',(0.999999999999884,-4.82488100172952E-7,-1.62868623128018E-10));
#411=DIRECTION('center_axis',(1.62868628449E-10,1.10281739042E-11,1.));
#412=DIRECTION('ref_axis',(1.,-8.42769109128871E-21,-1.62868628449E-10));
#413=DIRECTION('',(1.62868628449E-10,1.10281739042E-11,1.));
#414=DIRECTION('center_axis',(-1.62868628449E-10,-1.10281739042E-11,-1.));
#415=DIRECTION('ref_axis',(-0.99999999999988,-4.89250128183933E-7,1.62868633844516E-10));
#416=DIRECTION('center_axis',(-1.62868628449E-10,-1.10281739042E-11,-1.));
#417=DIRECTION('ref_axis',(-0.99999999999988,-4.89250128183933E-7,1.62868633844516E-10));
#418=DIRECTION('center_axis',(-1.62868628449E-10,-1.10281739042E-11,-1.));
#419=DIRECTION('ref_axis',(1.,-8.42769109128871E-21,-1.62868628449E-10));
#420=DIRECTION('center_axis',(1.62868628449E-10,1.10281739042E-11,1.));
#421=DIRECTION('ref_axis',(1.,-2.45387770788277E-11,-1.62868628448729E-10));
#422=DIRECTION('',(1.62868628449E-10,1.10281739042E-11,1.));
#423=DIRECTION('center_axis',(1.62868628449E-10,1.10281739042E-11,1.));
#424=DIRECTION('ref_axis',(1.,-8.42769109128871E-21,-1.62868628449E-10));
#425=DIRECTION('',(1.62868628449E-10,1.10281739042E-11,1.));
#426=DIRECTION('center_axis',(1.62868628449E-10,1.10281739042E-11,1.));
#427=DIRECTION('ref_axis',(1.,-1.42065975225277E-11,-1.62868628448843E-10));
#428=DIRECTION('',(1.62868628449E-10,1.10281739042E-11,1.));
#429=DIRECTION('center_axis',(-1.62868628449E-10,-1.10281739042E-11,-1.));
#430=DIRECTION('ref_axis',(1.,-2.17683571607084E-8,-1.62868628208935E-10));
#431=DIRECTION('center_axis',(-1.62868628449E-10,-1.10281739042E-11,-1.));
#432=DIRECTION('ref_axis',(1.,-8.42769109128871E-21,-1.62868628449E-10));
#433=DIRECTION('center_axis',(0.,0.,1.));
#434=DIRECTION('ref_axis',(1.,0.,0.));
#435=DIRECTION('center_axis',(0.,0.,1.));
#436=DIRECTION('ref_axis',(1.,0.,0.));
#437=DIRECTION('center_axis',(0.,0.,1.));
#438=DIRECTION('ref_axis',(1.,0.,0.));
#439=DIRECTION('',(0.,0.,-1.));
#440=DIRECTION('center_axis',(0.,0.,1.));
#441=DIRECTION('ref_axis',(1.,0.,0.));
#442=DIRECTION('center_axis',(0.,0.,-1.));
#443=DIRECTION('ref_axis',(-1.,0.,0.));
#444=DIRECTION('center_axis',(0.,0.,1.));
#445=DIRECTION('ref_axis',(1.,0.,0.));
#446=DIRECTION('center_axis',(0.,0.,1.));
#447=DIRECTION('ref_axis',(1.,0.,0.));
#448=DIRECTION('',(0.,0.,-1.));
#449=CARTESIAN_POINT('',(0.,0.,0.));
#450=CARTESIAN_POINT('Origin',(0.,1.35139645790909E-5,-54.0500009227015));
#451=CARTESIAN_POINT('',(12.3300023399957,1.07578673498613E-5,-51.7000064872619));
#452=CARTESIAN_POINT('',(-12.3300032294043,1.07580584418318E-5,-51.7000064832455));
#453=CARTESIAN_POINT('Origin',(-5.85986917112793E-7,1.03499427408248E-5,
-51.7000064852537));
#454=CARTESIAN_POINT('',(-1.50999019910062E-15,12.3300186076468,-51.7000003183953));
#455=CARTESIAN_POINT('Origin',(-5.85986917112793E-7,1.03499427408248E-5,
-51.7000064852537));
#456=CARTESIAN_POINT('',(1.9581926367944E-13,12.3300210222511,-57.3758087161897));
#457=CARTESIAN_POINT('',(-1.50999019910062E-15,12.3300191952099,-54.0499978398661));
#458=CARTESIAN_POINT('',(12.3299994780713,1.07578206785868E-5,-57.3758087180619));
#459=CARTESIAN_POINT('Origin',(-2.45028929161047E-6,1.90938513581807E-5,
-57.3758087160537));
#460=CARTESIAN_POINT('',(-12.3300043786865,1.0758127695774E-5,-57.3758087140455));
#461=CARTESIAN_POINT('Origin',(-2.45028929205047E-6,2.42749245233071E-6,
-57.3758087160537));
#462=CARTESIAN_POINT('Origin',(-2.45028929161047E-6,1.90938513581807E-5,
-57.3758087160537));
#463=CARTESIAN_POINT('Origin',(-5.85986917112793E-7,1.03499427408248E-5,
-51.7000064852537));
#464=CARTESIAN_POINT('Origin',(0.,1.35139645790909E-5,-54.0500009227015));
#465=CARTESIAN_POINT('',(12.3299994776868,1.07577946374625E-5,-59.7371578239619));
#466=CARTESIAN_POINT('',(-12.3300050274704,1.07581058275886E-5,-59.7371578199455));
#467=CARTESIAN_POINT('Origin',(-2.77487300751064E-6,2.75224850773213E-6,
-59.7371578219537));
#468=CARTESIAN_POINT('',(9.2011281118521E-14,12.330021021522,-59.7371578220897));
#469=CARTESIAN_POINT('Origin',(-2.77487300751064E-6,1.87689223296321E-5,
-59.7371578219537));
#470=CARTESIAN_POINT('',(7.74972281011131E-16,12.3300210111141,-61.0048122409897));
#471=CARTESIAN_POINT('',(-1.50999019910062E-15,12.3300191952099,-54.0499978398661));
#472=CARTESIAN_POINT('',(12.3299994774803,1.07574780991881E-5,-61.0048122428619));
#473=CARTESIAN_POINT('Origin',(-4.46219711164924E-7,2.10874141308387E-5,
-61.0048122408537));
#474=CARTESIAN_POINT('',(-12.3300003699197,1.07577806646026E-5,-61.0048122388455));
#475=CARTESIAN_POINT('Origin',(-4.46219712497192E-7,4.30992108638745E-7,
-61.0048122408537));
#476=CARTESIAN_POINT('Origin',(-4.46219711164924E-7,2.10874141308387E-5,
-61.0048122408537));
#477=CARTESIAN_POINT('Origin',(-2.77487300751064E-6,1.87689223296321E-5,
-59.7371578219537));
#478=CARTESIAN_POINT('Origin',(0.,1.35139645790909E-5,-54.0500009227015));
#479=CARTESIAN_POINT('',(12.3299994770957,1.07577271098301E-5,-63.3661613486619));
#480=CARTESIAN_POINT('',(-12.3300050278848,1.07580376560806E-5,-63.3661613446455));
#481=CARTESIAN_POINT('Origin',(-2.77538741209734E-6,2.75250513716016E-6,
-63.3661613466537));
#482=CARTESIAN_POINT('',(-1.17783035162067E-13,12.3300210210852,-63.3661613467897));
#483=CARTESIAN_POINT('Origin',(-2.77538741164734E-6,1.87685854817902E-5,
-63.3661613466537));
#484=CARTESIAN_POINT('',(-1.50999019910062E-15,12.3300216829794,-63.9999976490846));
#485=CARTESIAN_POINT('',(-1.50999019910062E-15,12.3300191952099,-54.0499978398661));
#486=CARTESIAN_POINT('Origin',(0.,1.60017341015175E-5,-64.0000007319201));
#487=CARTESIAN_POINT('Origin',(-2.77538741164734E-6,1.87685854817902E-5,
-63.3661613466537));
#488=CARTESIAN_POINT('Origin',(0.,-17.8999960319525,-64.0000038147563));
#489=CARTESIAN_POINT('',(13.4749933408925,1.07577473651069E-5,-64.0000038171483));
#490=CARTESIAN_POINT('Origin',(-4.51473447350217E-7,1.06681313141877E-5,
-64.0000038149537));
#491=CARTESIAN_POINT('Origin',(0.,-22.75,-73.0000000004511));
#492=CARTESIAN_POINT('',(-22.75,-2.78607146806023E-15,-72.9999886242184));
#493=CARTESIAN_POINT('Origin',(0.,0.,-72.9999943123347));
#494=CARTESIAN_POINT('',(18.8648472205266,-2.98788766901162,-73.0000000032932));
#495=CARTESIAN_POINT('Origin',(-8.85994020883553E-7,7.99335754590212E-6,
-73.0000000002537));
#496=CARTESIAN_POINT('Origin',(0.,-2.50027092363325E-7,0.999999999999973));
#497=CARTESIAN_POINT('',(3.49999999999998,0.,0.999999999999972));
#498=CARTESIAN_POINT('Origin',(0.,0.,0.999999999999972));
#499=CARTESIAN_POINT('Origin',(-19.3878047034734,-19.3035670186516,-72.9999999968831));
#500=CARTESIAN_POINT('',(-1.72755462162023E-5,-17.899978759602,-73.0000000000563));
#501=CARTESIAN_POINT('',(-17.8999987961197,1.07576480629424E-5,-72.9999999973383));
#502=CARTESIAN_POINT('Origin',(-6.42321797596553E-7,1.93941902655721E-5,
-73.0000000002537));
#503=CARTESIAN_POINT('Origin',(-6.42321797596553E-7,1.93941902655721E-5,
-73.0000000002537));
#504=CARTESIAN_POINT('Origin',(-4.48336220904002E-7,1.07576373477482E-5,
-74.0000000002537));
#505=CARTESIAN_POINT('',(-17.8999988049053,1.07577473071441E-5,-64.0000038120383));
#506=CARTESIAN_POINT('',(-17.8999981595362,1.07576373455562E-5,-73.9999999973383));
#507=CARTESIAN_POINT('',(1.75125878849238E-5,-17.8999785193546,-64.0000038147563));
#508=CARTESIAN_POINT('Origin',(-7.70207403911807E-7,1.95153360572252E-5,
-64.0000038149537));
#509=CARTESIAN_POINT('Origin',(-7.70207403911807E-7,1.95153360572252E-5,
-64.0000038149537));
#510=CARTESIAN_POINT('Origin',(-17.9000224583075,-18.0815700682524,-64.0000038118389));
#511=CARTESIAN_POINT('Origin',(-4.46604302187343E-7,1.07577546195702E-5,
-63.3661613466537));
#512=CARTESIAN_POINT('',(-12.3300003703043,1.07580571811797E-5,-63.3661613446455));
#513=CARTESIAN_POINT('Origin',(-4.46013251671277E-7,1.07577946408311E-5,
-59.7371597292537));
#514=CARTESIAN_POINT('',(-12.3300003697133,1.07577946393212E-5,-59.7371597272455));
#515=CARTESIAN_POINT('Origin',(-4.44704250613842E-7,1.07578832760179E-5,
-51.7000007631537));
#516=CARTESIAN_POINT('',(-12.3300032281665,1.07581422559787E-5,-44.1000041944455));
#517=CARTESIAN_POINT('',(-12.3300032294043,1.07580584418949E-5,-51.7000007611455));
#518=CARTESIAN_POINT('Origin',(-4.43466450929074E-7,1.10261958275447E-5,
-44.1000041964537));
#519=CARTESIAN_POINT('Origin',(-12.3300036873664,-12.6631330197329,-44.1000041943059));
#520=CARTESIAN_POINT('Origin',(3.49999999999998,0.,0.999999999999972));
#521=CARTESIAN_POINT('',(-24.75,-3.0310008278897E-15,0.99999999999997));
#522=CARTESIAN_POINT('Origin',(0.,0.,0.99999999999997));
#523=CARTESIAN_POINT('Origin',(0.,0.,0.499999999999979));
#524=CARTESIAN_POINT('',(-24.75,-3.0310008278897E-15,-79.));
#525=CARTESIAN_POINT('',(-24.75,-3.0310008278897E-15,0.499999999999979));
#526=CARTESIAN_POINT('Origin',(0.,0.,-79.));
#527=CARTESIAN_POINT('Origin',(24.75,0.,-79.));
#528=CARTESIAN_POINT('',(-22.75,-2.78607146806023E-15,-79.));
#529=CARTESIAN_POINT('Origin',(0.,0.,-79.));
#530=CARTESIAN_POINT('Origin',(0.,0.,-49.5));
#531=CARTESIAN_POINT('',(-22.75,-2.78607146806023E-15,-49.5));
#532=UNCERTAINTY_MEASURE_WITH_UNIT(LENGTH_MEASURE(0.01),#536,
'DISTANCE_ACCURACY_VALUE',
'Maximum model space distance between geometric entities at asserted c
onnectivities');
#533=UNCERTAINTY_MEASURE_WITH_UNIT(LENGTH_MEASURE(0.01),#536,
'DISTANCE_ACCURACY_VALUE',
'Maximum model space distance between geometric entities at asserted c
onnectivities');
#534=(
GEOMETRIC_REPRESENTATION_CONTEXT(3)
GLOBAL_UNCERTAINTY_ASSIGNED_CONTEXT((#532))
GLOBAL_UNIT_ASSIGNED_CONTEXT((#536,#538,#539))
REPRESENTATION_CONTEXT('','3D')
);
#535=(
GEOMETRIC_REPRESENTATION_CONTEXT(3)
GLOBAL_UNCERTAINTY_ASSIGNED_CONTEXT((#533))
GLOBAL_UNIT_ASSIGNED_CONTEXT((#536,#538,#539))
REPRESENTATION_CONTEXT('','3D')
);
#536=(
LENGTH_UNIT()
NAMED_UNIT(*)
SI_UNIT(.MILLI.,.METRE.)
);
#537=(
LENGTH_UNIT()
NAMED_UNIT(*)
SI_UNIT(.CENTI.,.METRE.)
);
#538=(
NAMED_UNIT(*)
PLANE_ANGLE_UNIT()
SI_UNIT($,.RADIAN.)
);
#539=(
NAMED_UNIT(*)
SI_UNIT($,.STERADIAN.)
SOLID_ANGLE_UNIT()
);
#540=SHAPE_DEFINITION_REPRESENTATION(#541,#542);
#541=PRODUCT_DEFINITION_SHAPE('',$,#544);
#542=SHAPE_REPRESENTATION('',(#302),#534);
#543=PRODUCT_DEFINITION_CONTEXT('part definition',#548,'design');
#544=PRODUCT_DEFINITION('ENG000026008','ENG000026008',#545,#543);
#545=PRODUCT_DEFINITION_FORMATION('00',$,#550);
#546=PRODUCT_RELATED_PRODUCT_CATEGORY('ENG000026008','ENG000026008',(#550));
#547=APPLICATION_PROTOCOL_DEFINITION('international standard',
'automotive_design',2009,#548);
#548=APPLICATION_CONTEXT(
'Core Data for Automotive Mechanical Design Process');
#549=PRODUCT_CONTEXT('part definition',#548,'mechanical');
#550=PRODUCT('ENG000026008','ENG000026008','SIMPLE',(#549));
#551=PRESENTATION_STYLE_ASSIGNMENT((#552));
#552=SURFACE_STYLE_USAGE(.BOTH.,#555);
#553=SURFACE_STYLE_RENDERING_WITH_PROPERTIES($,#559,(#554));
#554=SURFACE_STYLE_TRANSPARENT(0.);
#555=SURFACE_SIDE_STYLE('',(#556,#553));
#556=SURFACE_STYLE_FILL_AREA(#557);
#557=FILL_AREA_STYLE('',(#558));
#558=FILL_AREA_STYLE_COLOUR('',#559);
#559=COLOUR_RGB('',1.,1.,1.);
ENDSEC;
END-ISO-10303-21;
