ISO-10303-21;
HEADER;
/* Generated by software containing ST-Developer
 * from STEP Tools, Inc. (www.steptools.com) 
 */

FILE_DESCRIPTION(
/* description */ ('This is a sample STEP configuration'),
/* implementation_level */ '2;1');

FILE_NAME(
/* name */ '662-011xxxxxxxxx SIMPLE.ipt_Rev_02.stp',
/* time_stamp */ '2023-04-27T18:13:43+02:00',
/* author */ ('powerJobs'),
/* organization */ ('coolOrange'),
/* preprocessor_version */ 'ST-DEVELOPER v19.2',
/* originating_system */ 'Autodesk Inventor 2023',
/* authorisation */ '');

FILE_SCHEMA (('AUTOMOTIVE_DESIGN { 1 0 10303 214 3 1 1 }'));
ENDSEC;

DATA;
#10=MECHANICAL_DESIGN_GEOMETRIC_PRESENTATION_REPRESENTATION('',(#13),#522);
#11=SHAPE_REPRESENTATION_RELATIONSHIP('SRR','None',#529,#12);
#12=ADVANCED_BREP_SHAPE_REPRESENTATION('',(#14),#521);
#13=STYLED_ITEM('',(#538),#14);
#14=MANIFOLD_SOLID_BREP('Volumenk\X\F6rper1',#288);
#15=FACE_BOUND('',#57,.T.);
#16=FACE_BOUND('',#60,.T.);
#17=FACE_BOUND('',#67,.T.);
#18=FACE_BOUND('',#70,.T.);
#19=FACE_BOUND('',#73,.T.);
#20=(
BOUNDED_SURFACE()
B_SPLINE_SURFACE(2,2,((#423,#424,#425,#426,#427,#428,#429,#430,#431),(#432,
#433,#434,#435,#436,#437,#438,#439,#440),(#441,#442,#443,#444,#445,#446,
#447,#448,#449)),.UNSPECIFIED.,.F.,.T.,.F.)
B_SPLINE_SURFACE_WITH_KNOTS((3,3),(3,2,2,2,3),(-1.62163555973347,-0.155555680120623),
(-3.14159265358979,-1.5707963267949,0.,1.5707963267949,3.14159265358979),
 .UNSPECIFIED.)
GEOMETRIC_REPRESENTATION_ITEM()
RATIONAL_B_SPLINE_SURFACE(((1.,0.707106781186548,1.,0.707106781186548,1.,
0.707106781186548,1.,0.707106781186548,1.),(0.743143718755226,0.525481962928009,
0.743143718755226,0.525481962928009,0.743143718755226,0.525481962928009,
0.743143718755226,0.525481962928009,0.743143718755226),(1.,0.707106781186548,
1.,0.707106781186548,1.,0.707106781186548,1.,0.707106781186548,1.)))
REPRESENTATION_ITEM('')
SURFACE()
);
#21=PLANE('',#314);
#22=PLANE('',#317);
#23=PLANE('',#321);
#24=PLANE('',#322);
#25=PLANE('',#323);
#26=PLANE('',#324);
#27=PLANE('',#325);
#28=PLANE('',#329);
#29=PLANE('',#330);
#30=PLANE('',#331);
#31=PLANE('',#332);
#32=PLANE('',#333);
#33=PLANE('',#334);
#34=PLANE('',#335);
#35=FACE_OUTER_BOUND('',#53,.T.);
#36=FACE_OUTER_BOUND('',#54,.T.);
#37=FACE_OUTER_BOUND('',#55,.T.);
#38=FACE_OUTER_BOUND('',#56,.T.);
#39=FACE_OUTER_BOUND('',#58,.T.);
#40=FACE_OUTER_BOUND('',#59,.T.);
#41=FACE_OUTER_BOUND('',#61,.T.);
#42=FACE_OUTER_BOUND('',#62,.T.);
#43=FACE_OUTER_BOUND('',#63,.T.);
#44=FACE_OUTER_BOUND('',#64,.T.);
#45=FACE_OUTER_BOUND('',#65,.T.);
#46=FACE_OUTER_BOUND('',#66,.T.);
#47=FACE_OUTER_BOUND('',#68,.T.);
#48=FACE_OUTER_BOUND('',#69,.T.);
#49=FACE_OUTER_BOUND('',#71,.T.);
#50=FACE_OUTER_BOUND('',#72,.T.);
#51=FACE_OUTER_BOUND('',#74,.T.);
#52=FACE_OUTER_BOUND('',#75,.T.);
#53=EDGE_LOOP('',(#197,#198,#199,#200));
#54=EDGE_LOOP('',(#201));
#55=EDGE_LOOP('',(#202,#203,#204));
#56=EDGE_LOOP('',(#205));
#57=EDGE_LOOP('',(#206,#207,#208,#209));
#58=EDGE_LOOP('',(#210,#211,#212,#213));
#59=EDGE_LOOP('',(#214));
#60=EDGE_LOOP('',(#215));
#61=EDGE_LOOP('',(#216,#217,#218,#219));
#62=EDGE_LOOP('',(#220,#221,#222,#223));
#63=EDGE_LOOP('',(#224,#225,#226,#227));
#64=EDGE_LOOP('',(#228,#229,#230,#231));
#65=EDGE_LOOP('',(#232,#233,#234,#235));
#66=EDGE_LOOP('',(#236));
#67=EDGE_LOOP('',(#237,#238,#239,#240));
#68=EDGE_LOOP('',(#241,#242,#243,#244));
#69=EDGE_LOOP('',(#245,#246,#247,#248));
#70=EDGE_LOOP('',(#249));
#71=EDGE_LOOP('',(#250,#251,#252,#253));
#72=EDGE_LOOP('',(#254,#255,#256,#257));
#73=EDGE_LOOP('',(#258));
#74=EDGE_LOOP('',(#259,#260,#261,#262));
#75=EDGE_LOOP('',(#263,#264,#265,#266));
#76=LINE('',#420,#103);
#77=LINE('',#459,#104);
#78=LINE('',#461,#105);
#79=LINE('',#463,#106);
#80=LINE('',#464,#107);
#81=LINE('',#468,#108);
#82=LINE('',#473,#109);
#83=LINE('',#474,#110);
#84=LINE('',#475,#111);
#85=LINE('',#478,#112);
#86=LINE('',#479,#113);
#87=LINE('',#482,#114);
#88=LINE('',#483,#115);
#89=LINE('',#485,#116);
#90=LINE('',#490,#117);
#91=LINE('',#496,#118);
#92=LINE('',#498,#119);
#93=LINE('',#500,#120);
#94=LINE('',#501,#121);
#95=LINE('',#504,#122);
#96=LINE('',#506,#123);
#97=LINE('',#507,#124);
#98=LINE('',#510,#125);
#99=LINE('',#512,#126);
#100=LINE('',#513,#127);
#101=LINE('',#515,#128);
#102=LINE('',#516,#129);
#103=VECTOR('',#342,10.);
#104=VECTOR('',#355,10.);
#105=VECTOR('',#356,10.);
#106=VECTOR('',#357,10.);
#107=VECTOR('',#358,10.);
#108=VECTOR('',#363,17.5);
#109=VECTOR('',#368,10.);
#110=VECTOR('',#369,10.);
#111=VECTOR('',#370,10.);
#112=VECTOR('',#373,10.);
#113=VECTOR('',#374,10.);
#114=VECTOR('',#377,10.);
#115=VECTOR('',#378,10.);
#116=VECTOR('',#381,10.);
#117=VECTOR('',#386,13.75);
#118=VECTOR('',#393,10.);
#119=VECTOR('',#394,10.);
#120=VECTOR('',#395,10.);
#121=VECTOR('',#396,10.);
#122=VECTOR('',#399,10.);
#123=VECTOR('',#400,10.);
#124=VECTOR('',#401,10.);
#125=VECTOR('',#404,10.);
#126=VECTOR('',#405,10.);
#127=VECTOR('',#406,10.);
#128=VECTOR('',#409,10.);
#129=VECTOR('',#410,10.);
#130=CIRCLE('',#312,10.);
#131=CIRCLE('',#313,10.);
#132=CIRCLE('',#315,15.6439091543854);
#133=CIRCLE('',#316,16.25);
#134=CIRCLE('',#318,17.5);
#135=CIRCLE('',#320,17.5);
#136=CIRCLE('',#327,13.75);
#137=CIRCLE('',#328,13.75);
#138=VERTEX_POINT('',#417);
#139=VERTEX_POINT('',#419);
#140=VERTEX_POINT('',#450);
#141=VERTEX_POINT('',#451);
#142=VERTEX_POINT('',#455);
#143=VERTEX_POINT('',#457);
#144=VERTEX_POINT('',#458);
#145=VERTEX_POINT('',#460);
#146=VERTEX_POINT('',#462);
#147=VERTEX_POINT('',#466);
#148=VERTEX_POINT('',#471);
#149=VERTEX_POINT('',#472);
#150=VERTEX_POINT('',#477);
#151=VERTEX_POINT('',#481);
#152=VERTEX_POINT('',#487);
#153=VERTEX_POINT('',#489);
#154=VERTEX_POINT('',#494);
#155=VERTEX_POINT('',#495);
#156=VERTEX_POINT('',#497);
#157=VERTEX_POINT('',#499);
#158=VERTEX_POINT('',#503);
#159=VERTEX_POINT('',#505);
#160=VERTEX_POINT('',#509);
#161=VERTEX_POINT('',#511);
#162=EDGE_CURVE('',#138,#138,#130,.T.);
#163=EDGE_CURVE('',#138,#139,#76,.T.);
#164=EDGE_CURVE('',#139,#139,#131,.T.);
#165=EDGE_CURVE('',#140,#141,#132,.T.);
#166=EDGE_CURVE('',#141,#141,#133,.T.);
#167=EDGE_CURVE('',#142,#142,#134,.T.);
#168=EDGE_CURVE('',#143,#144,#77,.T.);
#169=EDGE_CURVE('',#144,#145,#78,.T.);
#170=EDGE_CURVE('',#145,#146,#79,.T.);
#171=EDGE_CURVE('',#146,#143,#80,.T.);
#172=EDGE_CURVE('',#147,#147,#135,.T.);
#173=EDGE_CURVE('',#147,#142,#81,.T.);
#174=EDGE_CURVE('',#148,#149,#82,.T.);
#175=EDGE_CURVE('',#148,#144,#83,.T.);
#176=EDGE_CURVE('',#149,#143,#84,.T.);
#177=EDGE_CURVE('',#149,#150,#85,.T.);
#178=EDGE_CURVE('',#150,#146,#86,.T.);
#179=EDGE_CURVE('',#150,#151,#87,.T.);
#180=EDGE_CURVE('',#151,#145,#88,.T.);
#181=EDGE_CURVE('',#151,#148,#89,.T.);
#182=EDGE_CURVE('',#152,#152,#136,.T.);
#183=EDGE_CURVE('',#152,#153,#90,.T.);
#184=EDGE_CURVE('',#153,#153,#137,.T.);
#185=EDGE_CURVE('',#154,#155,#91,.T.);
#186=EDGE_CURVE('',#155,#156,#92,.T.);
#187=EDGE_CURVE('',#157,#156,#93,.T.);
#188=EDGE_CURVE('',#154,#157,#94,.T.);
#189=EDGE_CURVE('',#158,#154,#95,.T.);
#190=EDGE_CURVE('',#159,#157,#96,.T.);
#191=EDGE_CURVE('',#158,#159,#97,.T.);
#192=EDGE_CURVE('',#160,#158,#98,.T.);
#193=EDGE_CURVE('',#161,#159,#99,.T.);
#194=EDGE_CURVE('',#160,#161,#100,.T.);
#195=EDGE_CURVE('',#155,#160,#101,.T.);
#196=EDGE_CURVE('',#156,#161,#102,.T.);
#197=ORIENTED_EDGE('',*,*,#162,.F.);
#198=ORIENTED_EDGE('',*,*,#163,.T.);
#199=ORIENTED_EDGE('',*,*,#164,.T.);
#200=ORIENTED_EDGE('',*,*,#163,.F.);
#201=ORIENTED_EDGE('',*,*,#164,.F.);
#202=ORIENTED_EDGE('',*,*,#165,.T.);
#203=ORIENTED_EDGE('',*,*,#166,.F.);
#204=ORIENTED_EDGE('',*,*,#165,.F.);
#205=ORIENTED_EDGE('',*,*,#167,.T.);
#206=ORIENTED_EDGE('',*,*,#168,.T.);
#207=ORIENTED_EDGE('',*,*,#169,.T.);
#208=ORIENTED_EDGE('',*,*,#170,.T.);
#209=ORIENTED_EDGE('',*,*,#171,.T.);
#210=ORIENTED_EDGE('',*,*,#172,.F.);
#211=ORIENTED_EDGE('',*,*,#173,.T.);
#212=ORIENTED_EDGE('',*,*,#167,.F.);
#213=ORIENTED_EDGE('',*,*,#173,.F.);
#214=ORIENTED_EDGE('',*,*,#172,.T.);
#215=ORIENTED_EDGE('',*,*,#166,.T.);
#216=ORIENTED_EDGE('',*,*,#174,.F.);
#217=ORIENTED_EDGE('',*,*,#175,.T.);
#218=ORIENTED_EDGE('',*,*,#168,.F.);
#219=ORIENTED_EDGE('',*,*,#176,.F.);
#220=ORIENTED_EDGE('',*,*,#177,.F.);
#221=ORIENTED_EDGE('',*,*,#176,.T.);
#222=ORIENTED_EDGE('',*,*,#171,.F.);
#223=ORIENTED_EDGE('',*,*,#178,.F.);
#224=ORIENTED_EDGE('',*,*,#179,.F.);
#225=ORIENTED_EDGE('',*,*,#178,.T.);
#226=ORIENTED_EDGE('',*,*,#170,.F.);
#227=ORIENTED_EDGE('',*,*,#180,.F.);
#228=ORIENTED_EDGE('',*,*,#181,.F.);
#229=ORIENTED_EDGE('',*,*,#180,.T.);
#230=ORIENTED_EDGE('',*,*,#169,.F.);
#231=ORIENTED_EDGE('',*,*,#175,.F.);
#232=ORIENTED_EDGE('',*,*,#182,.F.);
#233=ORIENTED_EDGE('',*,*,#183,.T.);
#234=ORIENTED_EDGE('',*,*,#184,.F.);
#235=ORIENTED_EDGE('',*,*,#183,.F.);
#236=ORIENTED_EDGE('',*,*,#182,.T.);
#237=ORIENTED_EDGE('',*,*,#174,.T.);
#238=ORIENTED_EDGE('',*,*,#177,.T.);
#239=ORIENTED_EDGE('',*,*,#179,.T.);
#240=ORIENTED_EDGE('',*,*,#181,.T.);
#241=ORIENTED_EDGE('',*,*,#185,.T.);
#242=ORIENTED_EDGE('',*,*,#186,.T.);
#243=ORIENTED_EDGE('',*,*,#187,.F.);
#244=ORIENTED_EDGE('',*,*,#188,.F.);
#245=ORIENTED_EDGE('',*,*,#189,.T.);
#246=ORIENTED_EDGE('',*,*,#188,.T.);
#247=ORIENTED_EDGE('',*,*,#190,.F.);
#248=ORIENTED_EDGE('',*,*,#191,.F.);
#249=ORIENTED_EDGE('',*,*,#184,.T.);
#250=ORIENTED_EDGE('',*,*,#192,.T.);
#251=ORIENTED_EDGE('',*,*,#191,.T.);
#252=ORIENTED_EDGE('',*,*,#193,.F.);
#253=ORIENTED_EDGE('',*,*,#194,.F.);
#254=ORIENTED_EDGE('',*,*,#195,.T.);
#255=ORIENTED_EDGE('',*,*,#194,.T.);
#256=ORIENTED_EDGE('',*,*,#196,.F.);
#257=ORIENTED_EDGE('',*,*,#186,.F.);
#258=ORIENTED_EDGE('',*,*,#162,.T.);
#259=ORIENTED_EDGE('',*,*,#196,.T.);
#260=ORIENTED_EDGE('',*,*,#193,.T.);
#261=ORIENTED_EDGE('',*,*,#190,.T.);
#262=ORIENTED_EDGE('',*,*,#187,.T.);
#263=ORIENTED_EDGE('',*,*,#195,.F.);
#264=ORIENTED_EDGE('',*,*,#185,.F.);
#265=ORIENTED_EDGE('',*,*,#189,.F.);
#266=ORIENTED_EDGE('',*,*,#192,.F.);
#267=CYLINDRICAL_SURFACE('',#311,10.);
#268=CYLINDRICAL_SURFACE('',#319,17.5);
#269=CYLINDRICAL_SURFACE('',#326,13.75);
#270=ADVANCED_FACE('',(#35),#267,.F.);
#271=ADVANCED_FACE('',(#36),#21,.F.);
#272=ADVANCED_FACE('',(#37),#20,.T.);
#273=ADVANCED_FACE('',(#38,#15),#22,.F.);
#274=ADVANCED_FACE('',(#39),#268,.T.);
#275=ADVANCED_FACE('',(#40,#16),#23,.T.);
#276=ADVANCED_FACE('',(#41),#24,.T.);
#277=ADVANCED_FACE('',(#42),#25,.T.);
#278=ADVANCED_FACE('',(#43),#26,.T.);
#279=ADVANCED_FACE('',(#44),#27,.T.);
#280=ADVANCED_FACE('',(#45),#269,.T.);
#281=ADVANCED_FACE('',(#46,#17),#28,.T.);
#282=ADVANCED_FACE('',(#47),#29,.T.);
#283=ADVANCED_FACE('',(#48,#18),#30,.T.);
#284=ADVANCED_FACE('',(#49),#31,.T.);
#285=ADVANCED_FACE('',(#50,#19),#32,.T.);
#286=ADVANCED_FACE('',(#51),#33,.T.);
#287=ADVANCED_FACE('',(#52),#34,.F.);
#288=CLOSED_SHELL('',(#270,#271,#272,#273,#274,#275,#276,#277,#278,#279,
#280,#281,#282,#283,#284,#285,#286,#287));
#289=DERIVED_UNIT_ELEMENT(#292,1.);
#290=DERIVED_UNIT_ELEMENT(#524,-3.);
#291=DIMENSIONAL_EXPONENTS(0.,1.,0.,0.,0.,0.,0.);
#292=(
CONVERSION_BASED_UNIT('gram',#294)
MASS_UNIT()
NAMED_UNIT(#291)
);
#293=(
MASS_UNIT()
NAMED_UNIT(*)
SI_UNIT(.KILO.,.GRAM.)
);
#294=MASS_MEASURE_WITH_UNIT(MASS_MEASURE(0.001),#293);
#295=DERIVED_UNIT((#289,#290));
#296=MEASURE_REPRESENTATION_ITEM('density measure',
POSITIVE_RATIO_MEASURE(0.),#295);
#297=PROPERTY_DEFINITION_REPRESENTATION(#302,#299);
#298=PROPERTY_DEFINITION_REPRESENTATION(#303,#300);
#299=REPRESENTATION('material name',(#301),#521);
#300=REPRESENTATION('density',(#296),#521);
#301=DESCRIPTIVE_REPRESENTATION_ITEM('ACC.TECHN. INFO',
'ACC.TECHN. INFO');
#302=PROPERTY_DEFINITION('material property','material name',#531);
#303=PROPERTY_DEFINITION('material property','density of part',#531);
#304=DATE_TIME_ROLE('creation_date');
#305=APPLIED_DATE_AND_TIME_ASSIGNMENT(#306,#304,(#531));
#306=DATE_AND_TIME(#307,#308);
#307=CALENDAR_DATE(2019,18,11);
#308=LOCAL_TIME(0,0,0.,#309);
#309=COORDINATED_UNIVERSAL_TIME_OFFSET(0,0,.BEHIND.);
#310=AXIS2_PLACEMENT_3D('placement',#415,#336,#337);
#311=AXIS2_PLACEMENT_3D('',#416,#338,#339);
#312=AXIS2_PLACEMENT_3D('',#418,#340,#341);
#313=AXIS2_PLACEMENT_3D('',#421,#343,#344);
#314=AXIS2_PLACEMENT_3D('',#422,#345,#346);
#315=AXIS2_PLACEMENT_3D('',#452,#347,#348);
#316=AXIS2_PLACEMENT_3D('',#453,#349,#350);
#317=AXIS2_PLACEMENT_3D('',#454,#351,#352);
#318=AXIS2_PLACEMENT_3D('',#456,#353,#354);
#319=AXIS2_PLACEMENT_3D('',#465,#359,#360);
#320=AXIS2_PLACEMENT_3D('',#467,#361,#362);
#321=AXIS2_PLACEMENT_3D('',#469,#364,#365);
#322=AXIS2_PLACEMENT_3D('',#470,#366,#367);
#323=AXIS2_PLACEMENT_3D('',#476,#371,#372);
#324=AXIS2_PLACEMENT_3D('',#480,#375,#376);
#325=AXIS2_PLACEMENT_3D('',#484,#379,#380);
#326=AXIS2_PLACEMENT_3D('',#486,#382,#383);
#327=AXIS2_PLACEMENT_3D('',#488,#384,#385);
#328=AXIS2_PLACEMENT_3D('',#491,#387,#388);
#329=AXIS2_PLACEMENT_3D('',#492,#389,#390);
#330=AXIS2_PLACEMENT_3D('',#493,#391,#392);
#331=AXIS2_PLACEMENT_3D('',#502,#397,#398);
#332=AXIS2_PLACEMENT_3D('',#508,#402,#403);
#333=AXIS2_PLACEMENT_3D('',#514,#407,#408);
#334=AXIS2_PLACEMENT_3D('',#517,#411,#412);
#335=AXIS2_PLACEMENT_3D('',#518,#413,#414);
#336=DIRECTION('axis',(0.,0.,1.));
#337=DIRECTION('refdir',(1.,0.,0.));
#338=DIRECTION('center_axis',(0.,1.,0.));
#339=DIRECTION('ref_axis',(-1.,0.,0.));
#340=DIRECTION('center_axis',(0.,1.,0.));
#341=DIRECTION('ref_axis',(-1.,0.,0.));
#342=DIRECTION('',(0.,1.,0.));
#343=DIRECTION('center_axis',(0.,1.,0.));
#344=DIRECTION('ref_axis',(-1.,0.,0.));
#345=DIRECTION('center_axis',(0.,1.,0.));
#346=DIRECTION('ref_axis',(0.,0.,1.));
#347=DIRECTION('center_axis',(1.,0.,0.));
#348=DIRECTION('ref_axis',(0.,0.,-1.));
#349=DIRECTION('center_axis',(0.,-1.,0.));
#350=DIRECTION('ref_axis',(0.,0.,1.));
#351=DIRECTION('center_axis',(0.,1.,0.));
#352=DIRECTION('ref_axis',(0.,0.,1.));
#353=DIRECTION('center_axis',(0.,-1.,0.));
#354=DIRECTION('ref_axis',(-1.,0.,0.));
#355=DIRECTION('',(0.,0.,-1.));
#356=DIRECTION('',(-1.,0.,-2.11471052309554E-16));
#357=DIRECTION('',(0.,0.,1.));
#358=DIRECTION('',(1.,0.,-2.11471052309554E-16));
#359=DIRECTION('center_axis',(0.,1.,0.));
#360=DIRECTION('ref_axis',(-1.,0.,0.));
#361=DIRECTION('center_axis',(0.,1.,0.));
#362=DIRECTION('ref_axis',(-1.,0.,0.));
#363=DIRECTION('',(0.,-1.,0.));
#364=DIRECTION('center_axis',(0.,1.,0.));
#365=DIRECTION('ref_axis',(0.,0.,1.));
#366=DIRECTION('center_axis',(1.,0.,0.));
#367=DIRECTION('ref_axis',(0.,0.,-1.));
#368=DIRECTION('',(0.,0.,1.));
#369=DIRECTION('',(0.,1.,0.));
#370=DIRECTION('',(0.,1.,0.));
#371=DIRECTION('center_axis',(2.11471052309554E-16,0.,1.));
#372=DIRECTION('ref_axis',(1.,0.,-2.11471052309554E-16));
#373=DIRECTION('',(-1.,0.,2.11471052309554E-16));
#374=DIRECTION('',(0.,1.,0.));
#375=DIRECTION('center_axis',(-1.,0.,0.));
#376=DIRECTION('ref_axis',(0.,0.,1.));
#377=DIRECTION('',(0.,0.,-1.));
#378=DIRECTION('',(0.,1.,0.));
#379=DIRECTION('center_axis',(2.11471052309554E-16,0.,-1.));
#380=DIRECTION('ref_axis',(-1.,0.,-2.11471052309554E-16));
#381=DIRECTION('',(1.,0.,2.11471052309554E-16));
#382=DIRECTION('center_axis',(0.,1.,0.));
#383=DIRECTION('ref_axis',(-1.,0.,0.));
#384=DIRECTION('center_axis',(0.,1.,0.));
#385=DIRECTION('ref_axis',(-1.,0.,0.));
#386=DIRECTION('',(0.,-1.,0.));
#387=DIRECTION('center_axis',(0.,-1.,0.));
#388=DIRECTION('ref_axis',(-1.,0.,0.));
#389=DIRECTION('center_axis',(0.,1.,0.));
#390=DIRECTION('ref_axis',(0.,0.,1.));
#391=DIRECTION('center_axis',(-1.,0.,0.));
#392=DIRECTION('ref_axis',(0.,-1.,0.));
#393=DIRECTION('',(0.,-1.,0.));
#394=DIRECTION('',(0.,0.,1.));
#395=DIRECTION('',(0.,-1.,0.));
#396=DIRECTION('',(0.,0.,1.));
#397=DIRECTION('center_axis',(0.,1.,0.));
#398=DIRECTION('ref_axis',(-1.,0.,0.));
#399=DIRECTION('',(-1.,0.,0.));
#400=DIRECTION('',(-1.,0.,0.));
#401=DIRECTION('',(0.,0.,1.));
#402=DIRECTION('center_axis',(1.,0.,0.));
#403=DIRECTION('ref_axis',(0.,1.,0.));
#404=DIRECTION('',(0.,1.,0.));
#405=DIRECTION('',(0.,1.,0.));
#406=DIRECTION('',(0.,0.,1.));
#407=DIRECTION('center_axis',(0.,-1.,0.));
#408=DIRECTION('ref_axis',(1.,0.,0.));
#409=DIRECTION('',(1.,0.,0.));
#410=DIRECTION('',(1.,0.,0.));
#411=DIRECTION('center_axis',(0.,0.,1.));
#412=DIRECTION('ref_axis',(1.,0.,0.));
#413=DIRECTION('center_axis',(0.,0.,1.));
#414=DIRECTION('ref_axis',(1.,0.,0.));
#415=CARTESIAN_POINT('',(0.,0.,0.));
#416=CARTESIAN_POINT('Origin',(174.4,0.,17.75));
#417=CARTESIAN_POINT('',(184.4,0.,17.75));
#418=CARTESIAN_POINT('Origin',(174.4,0.,17.75));
#419=CARTESIAN_POINT('',(184.4,10.,17.75));
#420=CARTESIAN_POINT('',(184.4,0.,17.75));
#421=CARTESIAN_POINT('Origin',(174.4,10.,17.75));
#422=CARTESIAN_POINT('Origin',(174.4,10.,17.75));
#423=CARTESIAN_POINT('Ctrl Pts',(29.7,170.1,17.75));
#424=CARTESIAN_POINT('Ctrl Pts',(29.7,170.1,17.75));
#425=CARTESIAN_POINT('Ctrl Pts',(29.7,170.1,17.75));
#426=CARTESIAN_POINT('Ctrl Pts',(29.7,170.1,17.75));
#427=CARTESIAN_POINT('Ctrl Pts',(29.7,170.1,17.75));
#428=CARTESIAN_POINT('Ctrl Pts',(29.7,170.1,17.75));
#429=CARTESIAN_POINT('Ctrl Pts',(29.7,170.1,17.75));
#430=CARTESIAN_POINT('Ctrl Pts',(29.7,170.1,17.75));
#431=CARTESIAN_POINT('Ctrl Pts',(29.7,170.1,17.75));
#432=CARTESIAN_POINT('Ctrl Pts',(29.7,169.384192806589,3.68231354135258));
#433=CARTESIAN_POINT('Ctrl Pts',(15.6323135413526,169.384192806589,3.68231354135258));
#434=CARTESIAN_POINT('Ctrl Pts',(15.6323135413526,169.384192806589,17.75));
#435=CARTESIAN_POINT('Ctrl Pts',(15.6323135413526,169.384192806589,31.8176864586474));
#436=CARTESIAN_POINT('Ctrl Pts',(29.7,169.384192806589,31.8176864586474));
#437=CARTESIAN_POINT('Ctrl Pts',(43.7676864586474,169.384192806589,31.8176864586474));
#438=CARTESIAN_POINT('Ctrl Pts',(43.7676864586474,169.384192806589,17.75));
#439=CARTESIAN_POINT('Ctrl Pts',(43.7676864586474,169.384192806589,3.68231354135258));
#440=CARTESIAN_POINT('Ctrl Pts',(29.7,169.384192806589,3.68231354135258));
#441=CARTESIAN_POINT('Ctrl Pts',(29.7,183.3,1.5));
#442=CARTESIAN_POINT('Ctrl Pts',(13.45,183.3,1.5));
#443=CARTESIAN_POINT('Ctrl Pts',(13.45,183.3,17.75));
#444=CARTESIAN_POINT('Ctrl Pts',(13.45,183.3,34.));
#445=CARTESIAN_POINT('Ctrl Pts',(29.7,183.3,34.));
#446=CARTESIAN_POINT('Ctrl Pts',(45.95,183.3,34.));
#447=CARTESIAN_POINT('Ctrl Pts',(45.95,183.3,17.75));
#448=CARTESIAN_POINT('Ctrl Pts',(45.95,183.3,1.5));
#449=CARTESIAN_POINT('Ctrl Pts',(29.7,183.3,1.5));
#450=CARTESIAN_POINT('',(29.7,170.1,17.75));
#451=CARTESIAN_POINT('',(29.7,183.3,1.5));
#452=CARTESIAN_POINT('Origin',(29.7,185.723696668696,16.9550182170329));
#453=CARTESIAN_POINT('Origin',(29.7,183.3,17.75));
#454=CARTESIAN_POINT('Origin',(29.7,43.3,17.75));
#455=CARTESIAN_POINT('',(47.2,43.3,17.75));
#456=CARTESIAN_POINT('Origin',(29.7,43.3,17.75));
#457=CARTESIAN_POINT('',(39.8,43.3,21.75));
#458=CARTESIAN_POINT('',(39.8,43.3,13.75));
#459=CARTESIAN_POINT('',(39.8,43.3,21.75));
#460=CARTESIAN_POINT('',(18.8,43.3,13.75));
#461=CARTESIAN_POINT('',(39.8,43.3,13.75));
#462=CARTESIAN_POINT('',(18.8,43.3,21.75));
#463=CARTESIAN_POINT('',(18.8,43.3,13.75));
#464=CARTESIAN_POINT('',(18.8,43.3,21.75));
#465=CARTESIAN_POINT('Origin',(29.7,43.3,17.75));
#466=CARTESIAN_POINT('',(47.2,183.3,17.75));
#467=CARTESIAN_POINT('Origin',(29.7,183.3,17.75));
#468=CARTESIAN_POINT('',(47.2,43.3,17.75));
#469=CARTESIAN_POINT('Origin',(29.7,183.3,17.75));
#470=CARTESIAN_POINT('Origin',(39.8,37.3,21.75));
#471=CARTESIAN_POINT('',(39.8,37.3,13.75));
#472=CARTESIAN_POINT('',(39.8,37.3,21.75));
#473=CARTESIAN_POINT('',(39.8,37.3,19.75));
#474=CARTESIAN_POINT('',(39.8,37.3,13.75));
#475=CARTESIAN_POINT('',(39.8,37.3,21.75));
#476=CARTESIAN_POINT('Origin',(18.8,37.3,21.75));
#477=CARTESIAN_POINT('',(18.8,37.3,21.75));
#478=CARTESIAN_POINT('',(24.25,37.3,21.75));
#479=CARTESIAN_POINT('',(18.8,37.3,21.75));
#480=CARTESIAN_POINT('Origin',(18.8,37.3,13.75));
#481=CARTESIAN_POINT('',(18.8,37.3,13.75));
#482=CARTESIAN_POINT('',(18.8,37.3,15.75));
#483=CARTESIAN_POINT('',(18.8,37.3,13.75));
#484=CARTESIAN_POINT('Origin',(39.8,37.3,13.75));
#485=CARTESIAN_POINT('',(34.75,37.3,13.75));
#486=CARTESIAN_POINT('Origin',(29.7,34.9,17.75));
#487=CARTESIAN_POINT('',(43.45,37.3,17.75));
#488=CARTESIAN_POINT('Origin',(29.7,37.3,17.75));
#489=CARTESIAN_POINT('',(43.45,34.9,17.75));
#490=CARTESIAN_POINT('',(43.45,34.9,17.75));
#491=CARTESIAN_POINT('Origin',(29.7,34.9,17.75));
#492=CARTESIAN_POINT('Origin',(29.7,37.3,17.75));
#493=CARTESIAN_POINT('Origin',(0.,34.9,0.));
#494=CARTESIAN_POINT('',(0.,34.9,0.));
#495=CARTESIAN_POINT('',(0.,0.,0.));
#496=CARTESIAN_POINT('',(0.,34.9,0.));
#497=CARTESIAN_POINT('',(0.,0.,35.5));
#498=CARTESIAN_POINT('',(0.,0.,0.));
#499=CARTESIAN_POINT('',(0.,34.9,35.5));
#500=CARTESIAN_POINT('',(0.,34.9,35.5));
#501=CARTESIAN_POINT('',(0.,34.9,0.));
#502=CARTESIAN_POINT('Origin',(219.4,34.9,0.));
#503=CARTESIAN_POINT('',(219.4,34.9,0.));
#504=CARTESIAN_POINT('',(219.4,34.9,0.));
#505=CARTESIAN_POINT('',(219.4,34.9,35.5));
#506=CARTESIAN_POINT('',(219.4,34.9,35.5));
#507=CARTESIAN_POINT('',(219.4,34.9,0.));
#508=CARTESIAN_POINT('Origin',(219.4,0.,0.));
#509=CARTESIAN_POINT('',(219.4,0.,0.));
#510=CARTESIAN_POINT('',(219.4,0.,0.));
#511=CARTESIAN_POINT('',(219.4,0.,35.5));
#512=CARTESIAN_POINT('',(219.4,0.,35.5));
#513=CARTESIAN_POINT('',(219.4,0.,0.));
#514=CARTESIAN_POINT('Origin',(0.,0.,0.));
#515=CARTESIAN_POINT('',(0.,0.,0.));
#516=CARTESIAN_POINT('',(0.,0.,35.5));
#517=CARTESIAN_POINT('Origin',(109.7,17.45,35.5));
#518=CARTESIAN_POINT('Origin',(109.7,17.45,0.));
#519=UNCERTAINTY_MEASURE_WITH_UNIT(LENGTH_MEASURE(0.01),#523,
'DISTANCE_ACCURACY_VALUE',
'Maximum model space distance between geometric entities at asserted c
onnectivities');
#520=UNCERTAINTY_MEASURE_WITH_UNIT(LENGTH_MEASURE(0.01),#523,
'DISTANCE_ACCURACY_VALUE',
'Maximum model space distance between geometric entities at asserted c
onnectivities');
#521=(
GEOMETRIC_REPRESENTATION_CONTEXT(3)
GLOBAL_UNCERTAINTY_ASSIGNED_CONTEXT((#519))
GLOBAL_UNIT_ASSIGNED_CONTEXT((#523,#525,#526))
REPRESENTATION_CONTEXT('','3D')
);
#522=(
GEOMETRIC_REPRESENTATION_CONTEXT(3)
GLOBAL_UNCERTAINTY_ASSIGNED_CONTEXT((#520))
GLOBAL_UNIT_ASSIGNED_CONTEXT((#523,#525,#526))
REPRESENTATION_CONTEXT('','3D')
);
#523=(
LENGTH_UNIT()
NAMED_UNIT(*)
SI_UNIT(.MILLI.,.METRE.)
);
#524=(
LENGTH_UNIT()
NAMED_UNIT(*)
SI_UNIT(.CENTI.,.METRE.)
);
#525=(
NAMED_UNIT(*)
PLANE_ANGLE_UNIT()
SI_UNIT($,.RADIAN.)
);
#526=(
NAMED_UNIT(*)
SI_UNIT($,.STERADIAN.)
SOLID_ANGLE_UNIT()
);
#527=SHAPE_DEFINITION_REPRESENTATION(#528,#529);
#528=PRODUCT_DEFINITION_SHAPE('',$,#531);
#529=SHAPE_REPRESENTATION('',(#310),#521);
#530=PRODUCT_DEFINITION_CONTEXT('part definition',#535,'design');
#531=PRODUCT_DEFINITION('ENG000017808','ENG000017808',#532,#530);
#532=PRODUCT_DEFINITION_FORMATION('02',$,#537);
#533=PRODUCT_RELATED_PRODUCT_CATEGORY('ENG000017808','ENG000017808',(#537));
#534=APPLICATION_PROTOCOL_DEFINITION('international standard',
'automotive_design',2009,#535);
#535=APPLICATION_CONTEXT(
'Core Data for Automotive Mechanical Design Process');
#536=PRODUCT_CONTEXT('part definition',#535,'mechanical');
#537=PRODUCT('ENG000017808','ENG000017808','SIMPLE',(#536));
#538=PRESENTATION_STYLE_ASSIGNMENT((#539));
#539=SURFACE_STYLE_USAGE(.BOTH.,#542);
#540=SURFACE_STYLE_RENDERING_WITH_PROPERTIES($,#546,(#541));
#541=SURFACE_STYLE_TRANSPARENT(0.);
#542=SURFACE_SIDE_STYLE('',(#543,#540));
#543=SURFACE_STYLE_FILL_AREA(#544);
#544=FILL_AREA_STYLE('',(#545));
#545=FILL_AREA_STYLE_COLOUR('',#546);
#546=COLOUR_RGB('',1.,1.,1.);
ENDSEC;
END-ISO-10303-21;
