ISO-10303-21;
HEADER;
/* Generated by software containing ST-Developer
 * from STEP Tools, Inc. (www.steptools.com) 
 */

FILE_DESCRIPTION(
/* description */ ('This is a sample STEP configuration'),
/* implementation_level */ '2;1');

FILE_NAME(
/* name */ '662-016xxxxxxxxx SIMPLE.ipt_Rev_00.stp',
/* time_stamp */ '2023-05-03T12:07:25+02:00',
/* author */ ('powerJobs'),
/* organization */ ('coolOrange'),
/* preprocessor_version */ 'ST-DEVELOPER v19.2',
/* originating_system */ 'Autodesk Inventor 2023',
/* authorisation */ '');

FILE_SCHEMA (('AUTOMOTIVE_DESIGN { 1 0 10303 214 3 1 1 }'));
ENDSEC;

DATA;
#10=MECHANICAL_DESIGN_GEOMETRIC_PRESENTATION_REPRESENTATION('',(#13),#95);
#11=SHAPE_REPRESENTATION_RELATIONSHIP('SRR','None',#102,#12);
#12=ADVANCED_BREP_SHAPE_REPRESENTATION('',(#14),#94);
#13=STYLED_ITEM('',(#111),#14);
#14=MANIFOLD_SOLID_BREP('Volumenk\X\F6rper1',#42);
#15=LINE('',#91,#16);
#16=VECTOR('',#82,17.5);
#17=CYLINDRICAL_SURFACE('',#69,17.5);
#18=FACE_OUTER_BOUND('',#21,.T.);
#19=FACE_OUTER_BOUND('',#22,.T.);
#20=FACE_OUTER_BOUND('',#23,.T.);
#21=EDGE_LOOP('',(#31));
#22=EDGE_LOOP('',(#32));
#23=EDGE_LOOP('',(#33,#34,#35,#36));
#24=CIRCLE('',#66,17.5);
#25=CIRCLE('',#68,17.5);
#26=VERTEX_POINT('',#85);
#27=VERTEX_POINT('',#88);
#28=EDGE_CURVE('',#26,#26,#24,.T.);
#29=EDGE_CURVE('',#27,#27,#25,.T.);
#30=EDGE_CURVE('',#27,#26,#15,.T.);
#31=ORIENTED_EDGE('',*,*,#28,.T.);
#32=ORIENTED_EDGE('',*,*,#29,.T.);
#33=ORIENTED_EDGE('',*,*,#29,.F.);
#34=ORIENTED_EDGE('',*,*,#30,.T.);
#35=ORIENTED_EDGE('',*,*,#28,.F.);
#36=ORIENTED_EDGE('',*,*,#30,.F.);
#37=PLANE('',#65);
#38=PLANE('',#67);
#39=ADVANCED_FACE('',(#18),#37,.F.);
#40=ADVANCED_FACE('',(#19),#38,.T.);
#41=ADVANCED_FACE('',(#20),#17,.T.);
#42=CLOSED_SHELL('',(#39,#40,#41));
#43=DERIVED_UNIT_ELEMENT(#46,1.);
#44=DERIVED_UNIT_ELEMENT(#97,-3.);
#45=DIMENSIONAL_EXPONENTS(0.,1.,0.,0.,0.,0.,0.);
#46=(
CONVERSION_BASED_UNIT('gram',#48)
MASS_UNIT()
NAMED_UNIT(#45)
);
#47=(
MASS_UNIT()
NAMED_UNIT(*)
SI_UNIT(.KILO.,.GRAM.)
);
#48=MASS_MEASURE_WITH_UNIT(MASS_MEASURE(0.001),#47);
#49=DERIVED_UNIT((#43,#44));
#50=MEASURE_REPRESENTATION_ITEM('density measure',
POSITIVE_RATIO_MEASURE(0.),#49);
#51=PROPERTY_DEFINITION_REPRESENTATION(#56,#53);
#52=PROPERTY_DEFINITION_REPRESENTATION(#57,#54);
#53=REPRESENTATION('material name',(#55),#94);
#54=REPRESENTATION('density',(#50),#94);
#55=DESCRIPTIVE_REPRESENTATION_ITEM('ACC.TECHN. INFO','ACC.TECHN. INFO');
#56=PROPERTY_DEFINITION('material property','material name',#104);
#57=PROPERTY_DEFINITION('material property','density of part',#104);
#58=DATE_TIME_ROLE('creation_date');
#59=APPLIED_DATE_AND_TIME_ASSIGNMENT(#60,#58,(#104));
#60=DATE_AND_TIME(#61,#62);
#61=CALENDAR_DATE(2023,28,4);
#62=LOCAL_TIME(0,0,0.,#63);
#63=COORDINATED_UNIVERSAL_TIME_OFFSET(0,0,.BEHIND.);
#64=AXIS2_PLACEMENT_3D('placement',#83,#70,#71);
#65=AXIS2_PLACEMENT_3D('',#84,#72,#73);
#66=AXIS2_PLACEMENT_3D('',#86,#74,#75);
#67=AXIS2_PLACEMENT_3D('',#87,#76,#77);
#68=AXIS2_PLACEMENT_3D('',#89,#78,#79);
#69=AXIS2_PLACEMENT_3D('',#90,#80,#81);
#70=DIRECTION('axis',(0.,0.,1.));
#71=DIRECTION('refdir',(1.,0.,0.));
#72=DIRECTION('center_axis',(2.45985520938689E-15,9.23890976978308E-16,
1.));
#73=DIRECTION('ref_axis',(1.,-1.94289029309393E-16,-2.45985520938689E-15));
#74=DIRECTION('center_axis',(-2.45985520938689E-15,-9.23890976978308E-16,
-1.));
#75=DIRECTION('ref_axis',(1.94289029309391E-16,1.,-9.23890976978308E-16));
#76=DIRECTION('center_axis',(2.45985520938689E-15,9.23890976978308E-16,
1.));
#77=DIRECTION('ref_axis',(1.,-1.94289029309393E-16,-2.45985520938689E-15));
#78=DIRECTION('center_axis',(2.45985520938689E-15,9.23890976978308E-16,
1.));
#79=DIRECTION('ref_axis',(1.94289029309391E-16,1.,-9.23890976978308E-16));
#80=DIRECTION('center_axis',(2.45985520938689E-15,9.23890976978308E-16,
1.));
#81=DIRECTION('ref_axis',(1.94289029309391E-16,1.,-9.23890976978308E-16));
#82=DIRECTION('',(-2.45985520938689E-15,-9.23890976978308E-16,-1.));
#83=CARTESIAN_POINT('',(0.,0.,0.));
#84=CARTESIAN_POINT('Origin',(4.22942104618758E-16,1.87036274335208E-15,
-330.00000000003));
#85=CARTESIAN_POINT('',(-1.25692611440682E-15,-17.5,-330.00000000003));
#86=CARTESIAN_POINT('Origin',(-3.49566450010331E-28,-2.30304917420493E-44,
-330.00000000003));
#87=CARTESIAN_POINT('Origin',(6.89182400732948E-13,2.60559836297278E-13,
-50.0000000000299));
#88=CARTESIAN_POINT('',(6.87502532513923E-13,-17.4999999999997,-50.0000000000299));
#89=CARTESIAN_POINT('Origin',(6.88759458628329E-13,2.58689473553926E-13,
-50.0000000000299));
#90=CARTESIAN_POINT('Origin',(-3.49566450010331E-28,-2.30304917420493E-44,
-330.00000000003));
#91=CARTESIAN_POINT('',(-1.25692611440682E-15,-17.5,-330.00000000003));
#92=UNCERTAINTY_MEASURE_WITH_UNIT(LENGTH_MEASURE(0.01),#96,
'DISTANCE_ACCURACY_VALUE',
'Maximum model space distance between geometric entities at asserted c
onnectivities');
#93=UNCERTAINTY_MEASURE_WITH_UNIT(LENGTH_MEASURE(0.01),#96,
'DISTANCE_ACCURACY_VALUE',
'Maximum model space distance between geometric entities at asserted c
onnectivities');
#94=(
GEOMETRIC_REPRESENTATION_CONTEXT(3)
GLOBAL_UNCERTAINTY_ASSIGNED_CONTEXT((#92))
GLOBAL_UNIT_ASSIGNED_CONTEXT((#96,#98,#99))
REPRESENTATION_CONTEXT('','3D')
);
#95=(
GEOMETRIC_REPRESENTATION_CONTEXT(3)
GLOBAL_UNCERTAINTY_ASSIGNED_CONTEXT((#93))
GLOBAL_UNIT_ASSIGNED_CONTEXT((#96,#98,#99))
REPRESENTATION_CONTEXT('','3D')
);
#96=(
LENGTH_UNIT()
NAMED_UNIT(*)
SI_UNIT(.MILLI.,.METRE.)
);
#97=(
LENGTH_UNIT()
NAMED_UNIT(*)
SI_UNIT(.CENTI.,.METRE.)
);
#98=(
NAMED_UNIT(*)
PLANE_ANGLE_UNIT()
SI_UNIT($,.RADIAN.)
);
#99=(
NAMED_UNIT(*)
SI_UNIT($,.STERADIAN.)
SOLID_ANGLE_UNIT()
);
#100=SHAPE_DEFINITION_REPRESENTATION(#101,#102);
#101=PRODUCT_DEFINITION_SHAPE('',$,#104);
#102=SHAPE_REPRESENTATION('',(#64),#94);
#103=PRODUCT_DEFINITION_CONTEXT('part definition',#108,'design');
#104=PRODUCT_DEFINITION('ENG000028982','ENG000028982',#105,#103);
#105=PRODUCT_DEFINITION_FORMATION('',$,#110);
#106=PRODUCT_RELATED_PRODUCT_CATEGORY('ENG000028982','ENG000028982',(#110));
#107=APPLICATION_PROTOCOL_DEFINITION('international standard',
'automotive_design',2009,#108);
#108=APPLICATION_CONTEXT(
'Core Data for Automotive Mechanical Design Process');
#109=PRODUCT_CONTEXT('part definition',#108,'mechanical');
#110=PRODUCT('ENG000028982','ENG000028982','SIMPLE',(#109));
#111=PRESENTATION_STYLE_ASSIGNMENT((#112));
#112=SURFACE_STYLE_USAGE(.BOTH.,#115);
#113=SURFACE_STYLE_RENDERING_WITH_PROPERTIES($,#119,(#114));
#114=SURFACE_STYLE_TRANSPARENT(0.);
#115=SURFACE_SIDE_STYLE('',(#116,#113));
#116=SURFACE_STYLE_FILL_AREA(#117);
#117=FILL_AREA_STYLE('',(#118));
#118=FILL_AREA_STYLE_COLOUR('',#119);
#119=COLOUR_RGB('',1.,1.,1.);
ENDSEC;
END-ISO-10303-21;
