ISO-10303-21;
HEADER;
/* Generated by software containing ST-Developer
 * from STEP Tools, Inc. (www.steptools.com) 
 */

FILE_DESCRIPTION(
/* description */ ('This is a sample STEP configuration'),
/* implementation_level */ '2;1');

FILE_NAME(
/* name */ '662-019xxxxxxxxx SIMPLE.ipt_Rev_00.stp',
/* time_stamp */ '2023-05-03T12:08:44+02:00',
/* author */ ('powerJobs'),
/* organization */ ('coolOrange'),
/* preprocessor_version */ 'ST-DEVELOPER v19.2',
/* originating_system */ 'Autodesk Inventor 2023',
/* authorisation */ '');

FILE_SCHEMA (('AUTOMOTIVE_DESIGN { 1 0 10303 214 3 1 1 }'));
ENDSEC;

DATA;
#10=MECHANICAL_DESIGN_GEOMETRIC_PRESENTATION_REPRESENTATION('',(#14,#15,
#16),#284);
#11=SHAPE_REPRESENTATION_RELATIONSHIP('SRR','None',#291,#12);
#12=ADVANCED_BREP_SHAPE_REPRESENTATION('',(#17,#18,#19),#283);
#13=SPHERICAL_SURFACE('',#184,90.);
#14=STYLED_ITEM('',(#300),#17);
#15=STYLED_ITEM('',(#300),#18);
#16=STYLED_ITEM('',(#300),#19);
#17=MANIFOLD_SOLID_BREP('Volumenk\X\F6rper1',#143);
#18=MANIFOLD_SOLID_BREP('Volumenk\X\F6rper2',#144);
#19=MANIFOLD_SOLID_BREP('Volumenk\X\F6rper3',#145);
#20=FACE_BOUND('',#50,.T.);
#21=CONICAL_SURFACE('',#176,14.5680148828669,0.349065850398866);
#22=LINE('',#254,#26);
#23=LINE('',#259,#27);
#24=LINE('',#264,#28);
#25=LINE('',#280,#29);
#26=VECTOR('',#205,14.75);
#27=VECTOR('',#212,14.5680148828669);
#28=VECTOR('',#219,17.5);
#29=VECTOR('',#242,17.5);
#30=CYLINDRICAL_SURFACE('',#172,14.75);
#31=CYLINDRICAL_SURFACE('',#179,17.5);
#32=CYLINDRICAL_SURFACE('',#190,17.5);
#33=FACE_OUTER_BOUND('',#45,.T.);
#34=FACE_OUTER_BOUND('',#46,.T.);
#35=FACE_OUTER_BOUND('',#47,.T.);
#36=FACE_OUTER_BOUND('',#48,.T.);
#37=FACE_OUTER_BOUND('',#49,.T.);
#38=FACE_OUTER_BOUND('',#51,.T.);
#39=FACE_OUTER_BOUND('',#52,.T.);
#40=FACE_OUTER_BOUND('',#53,.T.);
#41=FACE_OUTER_BOUND('',#54,.T.);
#42=FACE_OUTER_BOUND('',#55,.T.);
#43=FACE_OUTER_BOUND('',#56,.T.);
#44=FACE_OUTER_BOUND('',#57,.T.);
#45=EDGE_LOOP('',(#94));
#46=EDGE_LOOP('',(#95));
#47=EDGE_LOOP('',(#96,#97,#98,#99,#100));
#48=EDGE_LOOP('',(#101,#102,#103,#104,#105));
#49=EDGE_LOOP('',(#106));
#50=EDGE_LOOP('',(#107));
#51=EDGE_LOOP('',(#108,#109,#110,#111));
#52=EDGE_LOOP('',(#112));
#53=EDGE_LOOP('',(#113));
#54=EDGE_LOOP('',(#114,#115,#116,#117));
#55=EDGE_LOOP('',(#118));
#56=EDGE_LOOP('',(#119));
#57=EDGE_LOOP('',(#120,#121,#122,#123));
#58=CIRCLE('',#169,17.5);
#59=CIRCLE('',#171,14.3860297657338);
#60=CIRCLE('',#173,14.75);
#61=CIRCLE('',#174,14.75);
#62=CIRCLE('',#175,14.75);
#63=CIRCLE('',#178,17.5);
#64=CIRCLE('',#181,46.9585277053262);
#65=CIRCLE('',#183,17.8022297166457);
#66=CIRCLE('',#185,90.);
#67=CIRCLE('',#187,17.5);
#68=CIRCLE('',#189,17.5);
#69=VERTEX_POINT('',#245);
#70=VERTEX_POINT('',#248);
#71=VERTEX_POINT('',#251);
#72=VERTEX_POINT('',#253);
#73=VERTEX_POINT('',#255);
#74=VERTEX_POINT('',#261);
#75=VERTEX_POINT('',#266);
#76=VERTEX_POINT('',#269);
#77=VERTEX_POINT('',#274);
#78=VERTEX_POINT('',#277);
#79=EDGE_CURVE('',#69,#69,#58,.T.);
#80=EDGE_CURVE('',#70,#70,#59,.T.);
#81=EDGE_CURVE('',#71,#71,#60,.T.);
#82=EDGE_CURVE('',#71,#72,#22,.T.);
#83=EDGE_CURVE('',#73,#72,#61,.T.);
#84=EDGE_CURVE('',#72,#73,#62,.T.);
#85=EDGE_CURVE('',#73,#70,#23,.T.);
#86=EDGE_CURVE('',#74,#74,#63,.T.);
#87=EDGE_CURVE('',#69,#74,#24,.T.);
#88=EDGE_CURVE('',#75,#75,#64,.T.);
#89=EDGE_CURVE('',#76,#76,#65,.T.);
#90=EDGE_CURVE('',#76,#75,#66,.T.);
#91=EDGE_CURVE('',#77,#77,#67,.T.);
#92=EDGE_CURVE('',#78,#78,#68,.T.);
#93=EDGE_CURVE('',#78,#77,#25,.T.);
#94=ORIENTED_EDGE('',*,*,#79,.T.);
#95=ORIENTED_EDGE('',*,*,#80,.F.);
#96=ORIENTED_EDGE('',*,*,#81,.F.);
#97=ORIENTED_EDGE('',*,*,#82,.T.);
#98=ORIENTED_EDGE('',*,*,#83,.F.);
#99=ORIENTED_EDGE('',*,*,#84,.F.);
#100=ORIENTED_EDGE('',*,*,#82,.F.);
#101=ORIENTED_EDGE('',*,*,#83,.T.);
#102=ORIENTED_EDGE('',*,*,#84,.T.);
#103=ORIENTED_EDGE('',*,*,#85,.T.);
#104=ORIENTED_EDGE('',*,*,#80,.T.);
#105=ORIENTED_EDGE('',*,*,#85,.F.);
#106=ORIENTED_EDGE('',*,*,#86,.F.);
#107=ORIENTED_EDGE('',*,*,#81,.T.);
#108=ORIENTED_EDGE('',*,*,#79,.F.);
#109=ORIENTED_EDGE('',*,*,#87,.T.);
#110=ORIENTED_EDGE('',*,*,#86,.T.);
#111=ORIENTED_EDGE('',*,*,#87,.F.);
#112=ORIENTED_EDGE('',*,*,#88,.T.);
#113=ORIENTED_EDGE('',*,*,#89,.F.);
#114=ORIENTED_EDGE('',*,*,#89,.T.);
#115=ORIENTED_EDGE('',*,*,#90,.T.);
#116=ORIENTED_EDGE('',*,*,#88,.F.);
#117=ORIENTED_EDGE('',*,*,#90,.F.);
#118=ORIENTED_EDGE('',*,*,#91,.T.);
#119=ORIENTED_EDGE('',*,*,#92,.F.);
#120=ORIENTED_EDGE('',*,*,#92,.T.);
#121=ORIENTED_EDGE('',*,*,#93,.T.);
#122=ORIENTED_EDGE('',*,*,#91,.F.);
#123=ORIENTED_EDGE('',*,*,#93,.F.);
#124=PLANE('',#168);
#125=PLANE('',#170);
#126=PLANE('',#177);
#127=PLANE('',#180);
#128=PLANE('',#182);
#129=PLANE('',#186);
#130=PLANE('',#188);
#131=ADVANCED_FACE('',(#33),#124,.T.);
#132=ADVANCED_FACE('',(#34),#125,.T.);
#133=ADVANCED_FACE('',(#35),#30,.T.);
#134=ADVANCED_FACE('',(#36),#21,.T.);
#135=ADVANCED_FACE('',(#37,#20),#126,.T.);
#136=ADVANCED_FACE('',(#38),#31,.T.);
#137=ADVANCED_FACE('',(#39),#127,.T.);
#138=ADVANCED_FACE('',(#40),#128,.T.);
#139=ADVANCED_FACE('',(#41),#13,.T.);
#140=ADVANCED_FACE('',(#42),#129,.T.);
#141=ADVANCED_FACE('',(#43),#130,.F.);
#142=ADVANCED_FACE('',(#44),#32,.T.);
#143=CLOSED_SHELL('',(#131,#132,#133,#134,#135,#136));
#144=CLOSED_SHELL('',(#137,#138,#139));
#145=CLOSED_SHELL('',(#140,#141,#142));
#146=DERIVED_UNIT_ELEMENT(#149,1.);
#147=DERIVED_UNIT_ELEMENT(#286,-3.);
#148=DIMENSIONAL_EXPONENTS(0.,1.,0.,0.,0.,0.,0.);
#149=(
CONVERSION_BASED_UNIT('gram',#151)
MASS_UNIT()
NAMED_UNIT(#148)
);
#150=(
MASS_UNIT()
NAMED_UNIT(*)
SI_UNIT(.KILO.,.GRAM.)
);
#151=MASS_MEASURE_WITH_UNIT(MASS_MEASURE(0.001),#150);
#152=DERIVED_UNIT((#146,#147));
#153=MEASURE_REPRESENTATION_ITEM('density measure',
POSITIVE_RATIO_MEASURE(0.),#152);
#154=PROPERTY_DEFINITION_REPRESENTATION(#159,#156);
#155=PROPERTY_DEFINITION_REPRESENTATION(#160,#157);
#156=REPRESENTATION('material name',(#158),#283);
#157=REPRESENTATION('density',(#153),#283);
#158=DESCRIPTIVE_REPRESENTATION_ITEM('ACC.TECHN. INFO',
'ACC.TECHN. INFO');
#159=PROPERTY_DEFINITION('material property','material name',#293);
#160=PROPERTY_DEFINITION('material property','density of part',#293);
#161=DATE_TIME_ROLE('creation_date');
#162=APPLIED_DATE_AND_TIME_ASSIGNMENT(#163,#161,(#293));
#163=DATE_AND_TIME(#164,#165);
#164=CALENDAR_DATE(2023,28,4);
#165=LOCAL_TIME(0,0,0.,#166);
#166=COORDINATED_UNIVERSAL_TIME_OFFSET(0,0,.BEHIND.);
#167=AXIS2_PLACEMENT_3D('placement',#243,#191,#192);
#168=AXIS2_PLACEMENT_3D('',#244,#193,#194);
#169=AXIS2_PLACEMENT_3D('',#246,#195,#196);
#170=AXIS2_PLACEMENT_3D('',#247,#197,#198);
#171=AXIS2_PLACEMENT_3D('',#249,#199,#200);
#172=AXIS2_PLACEMENT_3D('',#250,#201,#202);
#173=AXIS2_PLACEMENT_3D('',#252,#203,#204);
#174=AXIS2_PLACEMENT_3D('',#256,#206,#207);
#175=AXIS2_PLACEMENT_3D('',#257,#208,#209);
#176=AXIS2_PLACEMENT_3D('',#258,#210,#211);
#177=AXIS2_PLACEMENT_3D('',#260,#213,#214);
#178=AXIS2_PLACEMENT_3D('',#262,#215,#216);
#179=AXIS2_PLACEMENT_3D('',#263,#217,#218);
#180=AXIS2_PLACEMENT_3D('',#265,#220,#221);
#181=AXIS2_PLACEMENT_3D('',#267,#222,#223);
#182=AXIS2_PLACEMENT_3D('',#268,#224,#225);
#183=AXIS2_PLACEMENT_3D('',#270,#226,#227);
#184=AXIS2_PLACEMENT_3D('',#271,#228,#229);
#185=AXIS2_PLACEMENT_3D('',#272,#230,#231);
#186=AXIS2_PLACEMENT_3D('',#273,#232,#233);
#187=AXIS2_PLACEMENT_3D('',#275,#234,#235);
#188=AXIS2_PLACEMENT_3D('',#276,#236,#237);
#189=AXIS2_PLACEMENT_3D('',#278,#238,#239);
#190=AXIS2_PLACEMENT_3D('',#279,#240,#241);
#191=DIRECTION('axis',(0.,0.,1.));
#192=DIRECTION('refdir',(1.,0.,0.));
#193=DIRECTION('center_axis',(0.,2.23639563343303E-15,1.));
#194=DIRECTION('ref_axis',(1.,6.12323399573649E-17,-1.36939737705538E-31));
#195=DIRECTION('center_axis',(0.,2.23639563343303E-15,1.));
#196=DIRECTION('ref_axis',(1.,6.12323399573649E-17,-1.36939737705538E-31));
#197=DIRECTION('center_axis',(0.,-2.23639563343303E-15,-1.));
#198=DIRECTION('ref_axis',(-1.,-6.12323399573649E-17,1.36939737705538E-31));
#199=DIRECTION('center_axis',(0.,2.23639563343303E-15,1.));
#200=DIRECTION('ref_axis',(-1.,-6.12323399573649E-17,1.36939737705538E-31));
#201=DIRECTION('center_axis',(0.,2.23639563343303E-15,1.));
#202=DIRECTION('ref_axis',(1.,6.12323399573649E-17,-1.36939737705538E-31));
#203=DIRECTION('center_axis',(0.,2.23639563343303E-15,1.));
#204=DIRECTION('ref_axis',(1.,6.12323399573649E-17,-1.36939737705538E-31));
#205=DIRECTION('',(0.,-2.23639563343303E-15,-1.));
#206=DIRECTION('center_axis',(0.,-2.23639563343303E-15,-1.));
#207=DIRECTION('ref_axis',(-1.,-6.12323399573649E-17,1.36939737705538E-31));
#208=DIRECTION('center_axis',(0.,-2.23639563343303E-15,-1.));
#209=DIRECTION('ref_axis',(-1.,-6.12323399573649E-17,1.36939737705538E-31));
#210=DIRECTION('center_axis',(0.,2.23639563343303E-15,1.));
#211=DIRECTION('ref_axis',(-1.,-6.12323399573649E-17,1.36939737705538E-31));
#212=DIRECTION('',(-0.342020143325668,-2.16435255496E-15,-0.939692620785909));
#213=DIRECTION('center_axis',(0.,-2.23639563343303E-15,-1.));
#214=DIRECTION('ref_axis',(-1.,-6.12323399573649E-17,1.36939737705538E-31));
#215=DIRECTION('center_axis',(0.,2.23639563343303E-15,1.));
#216=DIRECTION('ref_axis',(1.,6.12323399573649E-17,-1.36939737705538E-31));
#217=DIRECTION('center_axis',(0.,2.23639563343303E-15,1.));
#218=DIRECTION('ref_axis',(1.,6.12323399573649E-17,-1.36939737705538E-31));
#219=DIRECTION('',(0.,-2.23639563343303E-15,-1.));
#220=DIRECTION('center_axis',(7.08304386620098E-16,-2.23639563343303E-15,
-1.));
#221=DIRECTION('ref_axis',(0.0470051633908489,-0.998894646404014,2.2672175889011E-15));
#222=DIRECTION('center_axis',(7.08304386620098E-16,-2.23639563343303E-15,
-1.));
#223=DIRECTION('ref_axis',(-0.0470051633908489,0.998894646404014,-2.2672175889011E-15));
#224=DIRECTION('center_axis',(-7.08304386620098E-16,2.23639563343303E-15,
1.));
#225=DIRECTION('ref_axis',(-0.0470051633908489,0.998894646404014,-2.2672175889011E-15));
#226=DIRECTION('center_axis',(7.08304386620098E-16,-2.23639563343303E-15,
-1.));
#227=DIRECTION('ref_axis',(-0.0470051633908489,0.998894646404014,-2.2672175889011E-15));
#228=DIRECTION('center_axis',(-7.11182622764597E-16,2.29756029000323E-15,
1.));
#229=DIRECTION('ref_axis',(-0.0470051633908489,0.998894646404014,-2.21057740014253E-15));
#230=DIRECTION('center_axis',(0.998894646404014,0.047005163390849,6.02399317663193E-16));
#231=DIRECTION('ref_axis',(0.047005163390849,-0.998894646404014,2.368475785867E-15));
#232=DIRECTION('center_axis',(2.33486982377251E-16,2.23639563343303E-15,
1.));
#233=DIRECTION('ref_axis',(-1.,2.7755575615634E-17,2.33486982377251E-16));
#234=DIRECTION('center_axis',(2.33486982377251E-16,2.23639563343303E-15,
1.));
#235=DIRECTION('ref_axis',(-1.,2.7755575615634E-17,2.33486982377251E-16));
#236=DIRECTION('center_axis',(2.33486982377251E-16,2.23639563343303E-15,
1.));
#237=DIRECTION('ref_axis',(-1.,2.7755575615634E-17,2.33486982377251E-16));
#238=DIRECTION('center_axis',(2.33486982377251E-16,2.23639563343303E-15,
1.));
#239=DIRECTION('ref_axis',(-1.,2.7755575615634E-17,2.33486982377251E-16));
#240=DIRECTION('center_axis',(-2.33486982377251E-16,-2.23639563343303E-15,
-1.));
#241=DIRECTION('ref_axis',(-1.,2.7755575615634E-17,2.33486982377251E-16));
#242=DIRECTION('',(2.33486982377251E-16,2.23639563343303E-15,1.));
#243=CARTESIAN_POINT('',(0.,0.,0.));
#244=CARTESIAN_POINT('Origin',(13.2500000000003,-2.22828234838866E-13,-99.9999999999991));
#245=CARTESIAN_POINT('',(-17.4999999999997,-2.26854261191062E-13,-99.9999999999991));
#246=CARTESIAN_POINT('Origin',(2.49800180540656E-13,-2.23639563343301E-13,
-99.9999999999991));
#247=CARTESIAN_POINT('Origin',(14.7500000000002,-2.46218540479976E-13,-110.499999999999));
#248=CARTESIAN_POINT('',(14.386029765734,-2.44479046698591E-13,-110.499999999999));
#249=CARTESIAN_POINT('Origin',(2.49800180540656E-13,-2.47121717494347E-13,
-110.499999999999));
#250=CARTESIAN_POINT('Origin',(2.49800180540656E-13,-2.36498838235541E-13,
-105.749999999999));
#251=CARTESIAN_POINT('',(-14.7499999999997,-2.28585490019847E-13,-100.999999999999));
#252=CARTESIAN_POINT('Origin',(2.49800180540656E-13,-2.25875958976734E-13,
-100.999999999999));
#253=CARTESIAN_POINT('',(-14.7499999999997,-2.47594852904028E-13,-109.499999999999));
#254=CARTESIAN_POINT('',(-14.7499999999997,-2.39208369278654E-13,-105.749999999999));
#255=CARTESIAN_POINT('',(14.7500000000002,-2.45788498875286E-13,-109.499999999999));
#256=CARTESIAN_POINT('Origin',(2.49800180540656E-13,-2.44885321860914E-13,
-109.499999999999));
#257=CARTESIAN_POINT('Origin',(2.49800180540656E-13,-2.44885321860914E-13,
-109.499999999999));
#258=CARTESIAN_POINT('Origin',(2.49800180540656E-13,-2.46003519677631E-13,
-109.999999999999));
#259=CARTESIAN_POINT('',(14.5680148828671,-2.43327418758196E-13,-109.999999999999));
#260=CARTESIAN_POINT('Origin',(17.5000000000002,-2.2480439302748E-13,-100.999999999999));
#261=CARTESIAN_POINT('',(-17.4999999999997,-2.29090656824495E-13,-100.999999999999));
#262=CARTESIAN_POINT('Origin',(2.49800180540656E-13,-2.25875958976734E-13,
-100.999999999999));
#263=CARTESIAN_POINT('Origin',(2.49800180540656E-13,-2.24757761160017E-13,
-100.499999999999));
#264=CARTESIAN_POINT('',(-17.4999999999997,-2.27972459007779E-13,-100.499999999999));
#265=CARTESIAN_POINT('Origin',(1.99771944411145,-42.4530224721712,-266.999999999999));
#266=CARTESIAN_POINT('',(2.20729326738294,-46.9066219278655,-266.999999999999));
#267=CARTESIAN_POINT('Origin',(3.74740400145622E-13,-5.97043505590268E-13,
-266.999999999999));
#268=CARTESIAN_POINT('Origin',(0.836796716552614,-17.7825519580121,-101.999999999999));
#269=CARTESIAN_POINT('',(0.836796716552614,-17.7825519580121,-101.999999999999));
#270=CARTESIAN_POINT('Origin',(2.57870176353306E-13,-2.28038226073819E-13,
-101.999999999999));
#271=CARTESIAN_POINT('Origin',(3.2035804269921E-13,-4.25337006200507E-13,
-190.221769519295));
#272=CARTESIAN_POINT('Origin',(3.2035804269921E-13,-4.25337006200507E-13,
-190.221769519295));
#273=CARTESIAN_POINT('Origin',(2.14543646201691E-13,-2.25875958976734E-13,
-100.999999999999));
#274=CARTESIAN_POINT('',(17.5000000000002,-2.28504813448516E-13,-100.999999999999));
#275=CARTESIAN_POINT('Origin',(2.14543646201691E-13,-2.25875958976734E-13,
-100.999999999999));
#276=CARTESIAN_POINT('Origin',(2.14310159219314E-13,-2.28112354610167E-13,
-101.999999999999));
#277=CARTESIAN_POINT('',(17.5000000000002,-2.30741209081949E-13,-101.999999999999));
#278=CARTESIAN_POINT('Origin',(2.14310159219314E-13,-2.28112354610167E-13,
-101.999999999999));
#279=CARTESIAN_POINT('Origin',(2.14543646201691E-13,-2.25875958976734E-13,
-100.999999999999));
#280=CARTESIAN_POINT('',(17.5000000000002,-2.28504813448516E-13,-100.999999999999));
#281=UNCERTAINTY_MEASURE_WITH_UNIT(LENGTH_MEASURE(0.01),#285,
'DISTANCE_ACCURACY_VALUE',
'Maximum model space distance between geometric entities at asserted c
onnectivities');
#282=UNCERTAINTY_MEASURE_WITH_UNIT(LENGTH_MEASURE(0.01),#285,
'DISTANCE_ACCURACY_VALUE',
'Maximum model space distance between geometric entities at asserted c
onnectivities');
#283=(
GEOMETRIC_REPRESENTATION_CONTEXT(3)
GLOBAL_UNCERTAINTY_ASSIGNED_CONTEXT((#281))
GLOBAL_UNIT_ASSIGNED_CONTEXT((#285,#287,#288))
REPRESENTATION_CONTEXT('','3D')
);
#284=(
GEOMETRIC_REPRESENTATION_CONTEXT(3)
GLOBAL_UNCERTAINTY_ASSIGNED_CONTEXT((#282))
GLOBAL_UNIT_ASSIGNED_CONTEXT((#285,#287,#288))
REPRESENTATION_CONTEXT('','3D')
);
#285=(
LENGTH_UNIT()
NAMED_UNIT(*)
SI_UNIT(.MILLI.,.METRE.)
);
#286=(
LENGTH_UNIT()
NAMED_UNIT(*)
SI_UNIT(.CENTI.,.METRE.)
);
#287=(
NAMED_UNIT(*)
PLANE_ANGLE_UNIT()
SI_UNIT($,.RADIAN.)
);
#288=(
NAMED_UNIT(*)
SI_UNIT($,.STERADIAN.)
SOLID_ANGLE_UNIT()
);
#289=SHAPE_DEFINITION_REPRESENTATION(#290,#291);
#290=PRODUCT_DEFINITION_SHAPE('',$,#293);
#291=SHAPE_REPRESENTATION('',(#167),#283);
#292=PRODUCT_DEFINITION_CONTEXT('part definition',#297,'design');
#293=PRODUCT_DEFINITION('ENG000028985','ENG000028985',#294,#292);
#294=PRODUCT_DEFINITION_FORMATION('',$,#299);
#295=PRODUCT_RELATED_PRODUCT_CATEGORY('ENG000028985','ENG000028985',(#299));
#296=APPLICATION_PROTOCOL_DEFINITION('international standard',
'automotive_design',2009,#297);
#297=APPLICATION_CONTEXT(
'Core Data for Automotive Mechanical Design Process');
#298=PRODUCT_CONTEXT('part definition',#297,'mechanical');
#299=PRODUCT('ENG000028985','ENG000028985','SIMPLE',(#298));
#300=PRESENTATION_STYLE_ASSIGNMENT((#301));
#301=SURFACE_STYLE_USAGE(.BOTH.,#304);
#302=SURFACE_STYLE_RENDERING_WITH_PROPERTIES($,#308,(#303));
#303=SURFACE_STYLE_TRANSPARENT(0.);
#304=SURFACE_SIDE_STYLE('',(#305,#302));
#305=SURFACE_STYLE_FILL_AREA(#306);
#306=FILL_AREA_STYLE('',(#307));
#307=FILL_AREA_STYLE_COLOUR('',#308);
#308=COLOUR_RGB('',1.,1.,1.);
ENDSEC;
END-ISO-10303-21;
