ISO-10303-21;
HEADER;
/* Generated by software containing ST-Developer
 * from STEP Tools, Inc. (www.steptools.com) 
 */

FILE_DESCRIPTION(
/* description */ ('This is a sample STEP configuration'),
/* implementation_level */ '2;1');

FILE_NAME(
/* name */ '662-021xxxxxxxxx SIMPLE.ipt_Rev_02.stp',
/* time_stamp */ '2023-04-27T18:30:29+02:00',
/* author */ ('powerJobs'),
/* organization */ ('coolOrange'),
/* preprocessor_version */ 'ST-DEVELOPER v19.2',
/* originating_system */ 'Autodesk Inventor 2023',
/* authorisation */ '');

FILE_SCHEMA (('AUTOMOTIVE_DESIGN { 1 0 10303 214 3 1 1 }'));
ENDSEC;

DATA;
#10=MECHANICAL_DESIGN_GEOMETRIC_PRESENTATION_REPRESENTATION('',(#13),#620);
#11=SHAPE_REPRESENTATION_RELATIONSHIP('SRR','None',#627,#12);
#12=ADVANCED_BREP_SHAPE_REPRESENTATION('',(#14),#619);
#13=STYLED_ITEM('',(#636),#14);
#14=MANIFOLD_SOLID_BREP('Volumenk\X\F6rper1',#330);
#15=FACE_BOUND('',#121,.T.);
#16=FACE_BOUND('',#124,.T.);
#17=FACE_BOUND('',#125,.T.);
#18=FACE_BOUND('',#126,.T.);
#19=FACE_BOUND('',#128,.T.);
#20=FACE_BOUND('',#133,.T.);
#21=FACE_BOUND('',#135,.T.);
#22=PLANE('',#358);
#23=PLANE('',#362);
#24=PLANE('',#363);
#25=PLANE('',#367);
#26=PLANE('',#371);
#27=PLANE('',#372);
#28=PLANE('',#376);
#29=PLANE('',#377);
#30=PLANE('',#382);
#31=PLANE('',#383);
#32=PLANE('',#392);
#33=PLANE('',#393);
#34=LINE('',#536,#55);
#35=LINE('',#539,#56);
#36=LINE('',#542,#57);
#37=LINE('',#544,#58);
#38=LINE('',#545,#59);
#39=LINE('',#550,#60);
#40=LINE('',#553,#61);
#41=LINE('',#554,#62);
#42=LINE('',#561,#63);
#43=LINE('',#564,#64);
#44=LINE('',#567,#65);
#45=LINE('',#569,#66);
#46=LINE('',#570,#67);
#47=LINE('',#575,#68);
#48=LINE('',#578,#69);
#49=LINE('',#579,#70);
#50=LINE('',#585,#71);
#51=LINE('',#596,#72);
#52=LINE('',#604,#73);
#53=LINE('',#607,#74);
#54=LINE('',#613,#75);
#55=VECTOR('',#404,10.);
#56=VECTOR('',#407,10.);
#57=VECTOR('',#410,10.);
#58=VECTOR('',#411,10.);
#59=VECTOR('',#412,10.);
#60=VECTOR('',#417,10.);
#61=VECTOR('',#422,10.);
#62=VECTOR('',#423,10.);
#63=VECTOR('',#430,10.);
#64=VECTOR('',#433,10.);
#65=VECTOR('',#436,10.);
#66=VECTOR('',#437,10.);
#67=VECTOR('',#438,10.);
#68=VECTOR('',#443,10.);
#69=VECTOR('',#448,10.);
#70=VECTOR('',#449,10.);
#71=VECTOR('',#456,5.5);
#72=VECTOR('',#471,40.);
#73=VECTOR('',#482,4.25);
#74=VECTOR('',#485,0.5);
#75=VECTOR('',#492,17.5);
#76=CYLINDRICAL_SURFACE('',#355,2.25);
#77=CYLINDRICAL_SURFACE('',#359,2.25);
#78=CYLINDRICAL_SURFACE('',#364,2.25);
#79=CYLINDRICAL_SURFACE('',#368,2.25);
#80=CYLINDRICAL_SURFACE('',#373,5.5);
#81=CYLINDRICAL_SURFACE('',#380,40.);
#82=CYLINDRICAL_SURFACE('',#386,4.25);
#83=CYLINDRICAL_SURFACE('',#387,0.5);
#84=CYLINDRICAL_SURFACE('',#389,17.5);
#85=FACE_OUTER_BOUND('',#107,.T.);
#86=FACE_OUTER_BOUND('',#108,.T.);
#87=FACE_OUTER_BOUND('',#109,.T.);
#88=FACE_OUTER_BOUND('',#110,.T.);
#89=FACE_OUTER_BOUND('',#111,.T.);
#90=FACE_OUTER_BOUND('',#112,.T.);
#91=FACE_OUTER_BOUND('',#113,.T.);
#92=FACE_OUTER_BOUND('',#114,.T.);
#93=FACE_OUTER_BOUND('',#115,.T.);
#94=FACE_OUTER_BOUND('',#116,.T.);
#95=FACE_OUTER_BOUND('',#117,.T.);
#96=FACE_OUTER_BOUND('',#118,.T.);
#97=FACE_OUTER_BOUND('',#119,.T.);
#98=FACE_OUTER_BOUND('',#120,.T.);
#99=FACE_OUTER_BOUND('',#122,.T.);
#100=FACE_OUTER_BOUND('',#123,.T.);
#101=FACE_OUTER_BOUND('',#127,.T.);
#102=FACE_OUTER_BOUND('',#129,.T.);
#103=FACE_OUTER_BOUND('',#130,.T.);
#104=FACE_OUTER_BOUND('',#131,.T.);
#105=FACE_OUTER_BOUND('',#132,.T.);
#106=FACE_OUTER_BOUND('',#134,.T.);
#107=EDGE_LOOP('',(#225,#226,#227));
#108=EDGE_LOOP('',(#228,#229,#230,#231));
#109=EDGE_LOOP('',(#232,#233,#234,#235));
#110=EDGE_LOOP('',(#236,#237,#238,#239));
#111=EDGE_LOOP('',(#240,#241,#242,#243));
#112=EDGE_LOOP('',(#244,#245,#246,#247));
#113=EDGE_LOOP('',(#248,#249,#250,#251));
#114=EDGE_LOOP('',(#252,#253,#254,#255));
#115=EDGE_LOOP('',(#256,#257,#258,#259));
#116=EDGE_LOOP('',(#260,#261,#262,#263));
#117=EDGE_LOOP('',(#264,#265,#266,#267));
#118=EDGE_LOOP('',(#268,#269,#270,#271));
#119=EDGE_LOOP('',(#272));
#120=EDGE_LOOP('',(#273));
#121=EDGE_LOOP('',(#274));
#122=EDGE_LOOP('',(#275,#276,#277,#278));
#123=EDGE_LOOP('',(#279));
#124=EDGE_LOOP('',(#280,#281,#282,#283));
#125=EDGE_LOOP('',(#284,#285,#286,#287));
#126=EDGE_LOOP('',(#288));
#127=EDGE_LOOP('',(#289));
#128=EDGE_LOOP('',(#290));
#129=EDGE_LOOP('',(#291,#292,#293,#294));
#130=EDGE_LOOP('',(#295,#296,#297,#298));
#131=EDGE_LOOP('',(#299,#300,#301,#302));
#132=EDGE_LOOP('',(#303));
#133=EDGE_LOOP('',(#304));
#134=EDGE_LOOP('',(#305));
#135=EDGE_LOOP('',(#306));
#136=CIRCLE('',#353,17.);
#137=CIRCLE('',#354,16.5);
#138=CIRCLE('',#356,2.25);
#139=CIRCLE('',#357,2.25);
#140=CIRCLE('',#360,2.25);
#141=CIRCLE('',#361,2.25);
#142=CIRCLE('',#365,2.25);
#143=CIRCLE('',#366,2.25);
#144=CIRCLE('',#369,2.25);
#145=CIRCLE('',#370,2.25);
#146=CIRCLE('',#374,5.5);
#147=CIRCLE('',#375,5.5);
#148=CIRCLE('',#378,40.);
#149=CIRCLE('',#379,4.25);
#150=CIRCLE('',#381,40.);
#151=CIRCLE('',#384,4.25);
#152=CIRCLE('',#385,0.5);
#153=CIRCLE('',#388,0.5);
#154=CIRCLE('',#390,17.5);
#155=CIRCLE('',#391,17.5);
#156=VERTEX_POINT('',#527);
#157=VERTEX_POINT('',#528);
#158=VERTEX_POINT('',#532);
#159=VERTEX_POINT('',#533);
#160=VERTEX_POINT('',#535);
#161=VERTEX_POINT('',#537);
#162=VERTEX_POINT('',#541);
#163=VERTEX_POINT('',#543);
#164=VERTEX_POINT('',#547);
#165=VERTEX_POINT('',#549);
#166=VERTEX_POINT('',#557);
#167=VERTEX_POINT('',#558);
#168=VERTEX_POINT('',#560);
#169=VERTEX_POINT('',#562);
#170=VERTEX_POINT('',#566);
#171=VERTEX_POINT('',#568);
#172=VERTEX_POINT('',#572);
#173=VERTEX_POINT('',#574);
#174=VERTEX_POINT('',#582);
#175=VERTEX_POINT('',#584);
#176=VERTEX_POINT('',#589);
#177=VERTEX_POINT('',#591);
#178=VERTEX_POINT('',#594);
#179=VERTEX_POINT('',#599);
#180=VERTEX_POINT('',#601);
#181=VERTEX_POINT('',#606);
#182=VERTEX_POINT('',#610);
#183=VERTEX_POINT('',#612);
#184=EDGE_CURVE('',#156,#157,#136,.T.);
#185=EDGE_CURVE('',#157,#157,#137,.T.);
#186=EDGE_CURVE('',#158,#159,#138,.T.);
#187=EDGE_CURVE('',#158,#160,#34,.T.);
#188=EDGE_CURVE('',#160,#161,#139,.T.);
#189=EDGE_CURVE('',#159,#161,#35,.T.);
#190=EDGE_CURVE('',#162,#158,#36,.T.);
#191=EDGE_CURVE('',#162,#163,#37,.T.);
#192=EDGE_CURVE('',#163,#160,#38,.T.);
#193=EDGE_CURVE('',#164,#162,#140,.T.);
#194=EDGE_CURVE('',#164,#165,#39,.T.);
#195=EDGE_CURVE('',#165,#163,#141,.T.);
#196=EDGE_CURVE('',#159,#164,#40,.T.);
#197=EDGE_CURVE('',#161,#165,#41,.T.);
#198=EDGE_CURVE('',#166,#167,#142,.T.);
#199=EDGE_CURVE('',#166,#168,#42,.T.);
#200=EDGE_CURVE('',#168,#169,#143,.T.);
#201=EDGE_CURVE('',#167,#169,#43,.T.);
#202=EDGE_CURVE('',#170,#166,#44,.T.);
#203=EDGE_CURVE('',#170,#171,#45,.T.);
#204=EDGE_CURVE('',#171,#168,#46,.T.);
#205=EDGE_CURVE('',#172,#170,#144,.T.);
#206=EDGE_CURVE('',#172,#173,#47,.T.);
#207=EDGE_CURVE('',#173,#171,#145,.T.);
#208=EDGE_CURVE('',#167,#172,#48,.T.);
#209=EDGE_CURVE('',#169,#173,#49,.T.);
#210=EDGE_CURVE('',#174,#174,#146,.T.);
#211=EDGE_CURVE('',#174,#175,#50,.T.);
#212=EDGE_CURVE('',#175,#175,#147,.T.);
#213=EDGE_CURVE('',#176,#176,#148,.T.);
#214=EDGE_CURVE('',#177,#177,#149,.T.);
#215=EDGE_CURVE('',#178,#178,#150,.T.);
#216=EDGE_CURVE('',#178,#176,#51,.T.);
#217=EDGE_CURVE('',#179,#179,#151,.T.);
#218=EDGE_CURVE('',#180,#180,#152,.T.);
#219=EDGE_CURVE('',#177,#179,#52,.T.);
#220=EDGE_CURVE('',#180,#181,#53,.T.);
#221=EDGE_CURVE('',#181,#181,#153,.T.);
#222=EDGE_CURVE('',#182,#182,#154,.T.);
#223=EDGE_CURVE('',#182,#183,#54,.T.);
#224=EDGE_CURVE('',#183,#183,#155,.T.);
#225=ORIENTED_EDGE('',*,*,#184,.T.);
#226=ORIENTED_EDGE('',*,*,#185,.F.);
#227=ORIENTED_EDGE('',*,*,#184,.F.);
#228=ORIENTED_EDGE('',*,*,#186,.F.);
#229=ORIENTED_EDGE('',*,*,#187,.T.);
#230=ORIENTED_EDGE('',*,*,#188,.T.);
#231=ORIENTED_EDGE('',*,*,#189,.F.);
#232=ORIENTED_EDGE('',*,*,#190,.F.);
#233=ORIENTED_EDGE('',*,*,#191,.T.);
#234=ORIENTED_EDGE('',*,*,#192,.T.);
#235=ORIENTED_EDGE('',*,*,#187,.F.);
#236=ORIENTED_EDGE('',*,*,#193,.F.);
#237=ORIENTED_EDGE('',*,*,#194,.T.);
#238=ORIENTED_EDGE('',*,*,#195,.T.);
#239=ORIENTED_EDGE('',*,*,#191,.F.);
#240=ORIENTED_EDGE('',*,*,#196,.F.);
#241=ORIENTED_EDGE('',*,*,#189,.T.);
#242=ORIENTED_EDGE('',*,*,#197,.T.);
#243=ORIENTED_EDGE('',*,*,#194,.F.);
#244=ORIENTED_EDGE('',*,*,#197,.F.);
#245=ORIENTED_EDGE('',*,*,#188,.F.);
#246=ORIENTED_EDGE('',*,*,#192,.F.);
#247=ORIENTED_EDGE('',*,*,#195,.F.);
#248=ORIENTED_EDGE('',*,*,#198,.F.);
#249=ORIENTED_EDGE('',*,*,#199,.T.);
#250=ORIENTED_EDGE('',*,*,#200,.T.);
#251=ORIENTED_EDGE('',*,*,#201,.F.);
#252=ORIENTED_EDGE('',*,*,#202,.F.);
#253=ORIENTED_EDGE('',*,*,#203,.T.);
#254=ORIENTED_EDGE('',*,*,#204,.T.);
#255=ORIENTED_EDGE('',*,*,#199,.F.);
#256=ORIENTED_EDGE('',*,*,#205,.F.);
#257=ORIENTED_EDGE('',*,*,#206,.T.);
#258=ORIENTED_EDGE('',*,*,#207,.T.);
#259=ORIENTED_EDGE('',*,*,#203,.F.);
#260=ORIENTED_EDGE('',*,*,#208,.F.);
#261=ORIENTED_EDGE('',*,*,#201,.T.);
#262=ORIENTED_EDGE('',*,*,#209,.T.);
#263=ORIENTED_EDGE('',*,*,#206,.F.);
#264=ORIENTED_EDGE('',*,*,#209,.F.);
#265=ORIENTED_EDGE('',*,*,#200,.F.);
#266=ORIENTED_EDGE('',*,*,#204,.F.);
#267=ORIENTED_EDGE('',*,*,#207,.F.);
#268=ORIENTED_EDGE('',*,*,#210,.F.);
#269=ORIENTED_EDGE('',*,*,#211,.T.);
#270=ORIENTED_EDGE('',*,*,#212,.T.);
#271=ORIENTED_EDGE('',*,*,#211,.F.);
#272=ORIENTED_EDGE('',*,*,#212,.F.);
#273=ORIENTED_EDGE('',*,*,#213,.T.);
#274=ORIENTED_EDGE('',*,*,#214,.T.);
#275=ORIENTED_EDGE('',*,*,#215,.F.);
#276=ORIENTED_EDGE('',*,*,#216,.T.);
#277=ORIENTED_EDGE('',*,*,#213,.F.);
#278=ORIENTED_EDGE('',*,*,#216,.F.);
#279=ORIENTED_EDGE('',*,*,#215,.T.);
#280=ORIENTED_EDGE('',*,*,#186,.T.);
#281=ORIENTED_EDGE('',*,*,#196,.T.);
#282=ORIENTED_EDGE('',*,*,#193,.T.);
#283=ORIENTED_EDGE('',*,*,#190,.T.);
#284=ORIENTED_EDGE('',*,*,#198,.T.);
#285=ORIENTED_EDGE('',*,*,#208,.T.);
#286=ORIENTED_EDGE('',*,*,#205,.T.);
#287=ORIENTED_EDGE('',*,*,#202,.T.);
#288=ORIENTED_EDGE('',*,*,#210,.T.);
#289=ORIENTED_EDGE('',*,*,#217,.T.);
#290=ORIENTED_EDGE('',*,*,#218,.T.);
#291=ORIENTED_EDGE('',*,*,#214,.F.);
#292=ORIENTED_EDGE('',*,*,#219,.T.);
#293=ORIENTED_EDGE('',*,*,#217,.F.);
#294=ORIENTED_EDGE('',*,*,#219,.F.);
#295=ORIENTED_EDGE('',*,*,#218,.F.);
#296=ORIENTED_EDGE('',*,*,#220,.T.);
#297=ORIENTED_EDGE('',*,*,#221,.F.);
#298=ORIENTED_EDGE('',*,*,#220,.F.);
#299=ORIENTED_EDGE('',*,*,#222,.F.);
#300=ORIENTED_EDGE('',*,*,#223,.T.);
#301=ORIENTED_EDGE('',*,*,#224,.F.);
#302=ORIENTED_EDGE('',*,*,#223,.F.);
#303=ORIENTED_EDGE('',*,*,#224,.T.);
#304=ORIENTED_EDGE('',*,*,#185,.T.);
#305=ORIENTED_EDGE('',*,*,#222,.T.);
#306=ORIENTED_EDGE('',*,*,#221,.T.);
#307=(
BOUNDED_SURFACE()
B_SPLINE_SURFACE(2,2,((#500,#501,#502,#503,#504,#505,#506,#507,#508),(#509,
#510,#511,#512,#513,#514,#515,#516,#517),(#518,#519,#520,#521,#522,#523,
#524,#525,#526)),.UNSPECIFIED.,.F.,.T.,.F.)
B_SPLINE_SURFACE_WITH_KNOTS((3,3),(3,2,2,2,3),(-1.5482972411377,-0.117665292211162),
(-3.14159265358979,-1.5707963267949,0.,1.5707963267949,3.14159265358979),
 .UNSPECIFIED.)
GEOMETRIC_REPRESENTATION_ITEM()
RATIONAL_B_SPLINE_SURFACE(((1.,0.707106781186548,1.,0.707106781186548,1.,
0.707106781186548,1.,0.707106781186548,1.),(0.754886045159446,0.533785041555339,
0.754886045159446,0.533785041555339,0.754886045159446,0.533785041555339,
0.754886045159446,0.533785041555339,0.754886045159446),(1.,0.707106781186548,
1.,0.707106781186548,1.,0.707106781186548,1.,0.707106781186548,1.)))
REPRESENTATION_ITEM('')
SURFACE()
);
#308=ADVANCED_FACE('',(#85),#307,.T.);
#309=ADVANCED_FACE('',(#86),#76,.F.);
#310=ADVANCED_FACE('',(#87),#22,.F.);
#311=ADVANCED_FACE('',(#88),#77,.F.);
#312=ADVANCED_FACE('',(#89),#23,.F.);
#313=ADVANCED_FACE('',(#90),#24,.T.);
#314=ADVANCED_FACE('',(#91),#78,.F.);
#315=ADVANCED_FACE('',(#92),#25,.F.);
#316=ADVANCED_FACE('',(#93),#79,.F.);
#317=ADVANCED_FACE('',(#94),#26,.F.);
#318=ADVANCED_FACE('',(#95),#27,.T.);
#319=ADVANCED_FACE('',(#96),#80,.F.);
#320=ADVANCED_FACE('',(#97),#28,.T.);
#321=ADVANCED_FACE('',(#98,#15),#29,.F.);
#322=ADVANCED_FACE('',(#99),#81,.T.);
#323=ADVANCED_FACE('',(#100,#16,#17,#18),#30,.T.);
#324=ADVANCED_FACE('',(#101,#19),#31,.F.);
#325=ADVANCED_FACE('',(#102),#82,.T.);
#326=ADVANCED_FACE('',(#103),#83,.T.);
#327=ADVANCED_FACE('',(#104),#84,.T.);
#328=ADVANCED_FACE('',(#105,#20),#32,.F.);
#329=ADVANCED_FACE('',(#106,#21),#33,.T.);
#330=CLOSED_SHELL('',(#308,#309,#310,#311,#312,#313,#314,#315,#316,#317,
#318,#319,#320,#321,#322,#323,#324,#325,#326,#327,#328,#329));
#331=DERIVED_UNIT_ELEMENT(#334,1.);
#332=DERIVED_UNIT_ELEMENT(#622,-3.);
#333=DIMENSIONAL_EXPONENTS(0.,1.,0.,0.,0.,0.,0.);
#334=(
CONVERSION_BASED_UNIT('gram',#336)
MASS_UNIT()
NAMED_UNIT(#333)
);
#335=(
MASS_UNIT()
NAMED_UNIT(*)
SI_UNIT(.KILO.,.GRAM.)
);
#336=MASS_MEASURE_WITH_UNIT(MASS_MEASURE(0.001),#335);
#337=DERIVED_UNIT((#331,#332));
#338=MEASURE_REPRESENTATION_ITEM('density measure',
POSITIVE_RATIO_MEASURE(0.),#337);
#339=PROPERTY_DEFINITION_REPRESENTATION(#344,#341);
#340=PROPERTY_DEFINITION_REPRESENTATION(#345,#342);
#341=REPRESENTATION('material name',(#343),#619);
#342=REPRESENTATION('density',(#338),#619);
#343=DESCRIPTIVE_REPRESENTATION_ITEM('ACC.TECHN. INFO',
'ACC.TECHN. INFO');
#344=PROPERTY_DEFINITION('material property','material name',#629);
#345=PROPERTY_DEFINITION('material property','density of part',#629);
#346=DATE_TIME_ROLE('creation_date');
#347=APPLIED_DATE_AND_TIME_ASSIGNMENT(#348,#346,(#629));
#348=DATE_AND_TIME(#349,#350);
#349=CALENDAR_DATE(2019,20,11);
#350=LOCAL_TIME(0,0,0.,#351);
#351=COORDINATED_UNIVERSAL_TIME_OFFSET(0,0,.BEHIND.);
#352=AXIS2_PLACEMENT_3D('placement',#499,#394,#395);
#353=AXIS2_PLACEMENT_3D('',#529,#396,#397);
#354=AXIS2_PLACEMENT_3D('',#530,#398,#399);
#355=AXIS2_PLACEMENT_3D('',#531,#400,#401);
#356=AXIS2_PLACEMENT_3D('',#534,#402,#403);
#357=AXIS2_PLACEMENT_3D('',#538,#405,#406);
#358=AXIS2_PLACEMENT_3D('',#540,#408,#409);
#359=AXIS2_PLACEMENT_3D('',#546,#413,#414);
#360=AXIS2_PLACEMENT_3D('',#548,#415,#416);
#361=AXIS2_PLACEMENT_3D('',#551,#418,#419);
#362=AXIS2_PLACEMENT_3D('',#552,#420,#421);
#363=AXIS2_PLACEMENT_3D('',#555,#424,#425);
#364=AXIS2_PLACEMENT_3D('',#556,#426,#427);
#365=AXIS2_PLACEMENT_3D('',#559,#428,#429);
#366=AXIS2_PLACEMENT_3D('',#563,#431,#432);
#367=AXIS2_PLACEMENT_3D('',#565,#434,#435);
#368=AXIS2_PLACEMENT_3D('',#571,#439,#440);
#369=AXIS2_PLACEMENT_3D('',#573,#441,#442);
#370=AXIS2_PLACEMENT_3D('',#576,#444,#445);
#371=AXIS2_PLACEMENT_3D('',#577,#446,#447);
#372=AXIS2_PLACEMENT_3D('',#580,#450,#451);
#373=AXIS2_PLACEMENT_3D('',#581,#452,#453);
#374=AXIS2_PLACEMENT_3D('',#583,#454,#455);
#375=AXIS2_PLACEMENT_3D('',#586,#457,#458);
#376=AXIS2_PLACEMENT_3D('',#587,#459,#460);
#377=AXIS2_PLACEMENT_3D('',#588,#461,#462);
#378=AXIS2_PLACEMENT_3D('',#590,#463,#464);
#379=AXIS2_PLACEMENT_3D('',#592,#465,#466);
#380=AXIS2_PLACEMENT_3D('',#593,#467,#468);
#381=AXIS2_PLACEMENT_3D('',#595,#469,#470);
#382=AXIS2_PLACEMENT_3D('',#597,#472,#473);
#383=AXIS2_PLACEMENT_3D('',#598,#474,#475);
#384=AXIS2_PLACEMENT_3D('',#600,#476,#477);
#385=AXIS2_PLACEMENT_3D('',#602,#478,#479);
#386=AXIS2_PLACEMENT_3D('',#603,#480,#481);
#387=AXIS2_PLACEMENT_3D('',#605,#483,#484);
#388=AXIS2_PLACEMENT_3D('',#608,#486,#487);
#389=AXIS2_PLACEMENT_3D('',#609,#488,#489);
#390=AXIS2_PLACEMENT_3D('',#611,#490,#491);
#391=AXIS2_PLACEMENT_3D('',#614,#493,#494);
#392=AXIS2_PLACEMENT_3D('',#615,#495,#496);
#393=AXIS2_PLACEMENT_3D('',#616,#497,#498);
#394=DIRECTION('axis',(0.,0.,1.));
#395=DIRECTION('refdir',(1.,0.,0.));
#396=DIRECTION('center_axis',(1.22464679914735E-16,1.,1.83697019872103E-16));
#397=DIRECTION('ref_axis',(1.,-1.22464679914735E-16,0.));
#398=DIRECTION('center_axis',(0.,-9.18485099360515E-17,1.));
#399=DIRECTION('ref_axis',(-1.,0.,0.));
#400=DIRECTION('center_axis',(0.,0.,-1.));
#401=DIRECTION('ref_axis',(-1.,-7.40148683083439E-16,0.));
#402=DIRECTION('center_axis',(0.,0.,-1.));
#403=DIRECTION('ref_axis',(-1.,-7.40148683083439E-16,0.));
#404=DIRECTION('',(0.,0.,-1.));
#405=DIRECTION('center_axis',(0.,0.,-1.));
#406=DIRECTION('ref_axis',(-1.,-7.40148683083439E-16,0.));
#407=DIRECTION('',(0.,0.,-1.));
#408=DIRECTION('center_axis',(1.,1.61486985400023E-15,0.));
#409=DIRECTION('ref_axis',(1.61486985400023E-15,-1.,0.));
#410=DIRECTION('',(1.61486985400023E-15,-1.,0.));
#411=DIRECTION('',(0.,0.,-1.));
#412=DIRECTION('',(1.61486985400023E-15,-1.,0.));
#413=DIRECTION('center_axis',(0.,0.,-1.));
#414=DIRECTION('ref_axis',(1.,9.8686491077792E-16,0.));
#415=DIRECTION('center_axis',(0.,0.,-1.));
#416=DIRECTION('ref_axis',(1.,9.8686491077792E-16,0.));
#417=DIRECTION('',(0.,0.,-1.));
#418=DIRECTION('center_axis',(0.,0.,-1.));
#419=DIRECTION('ref_axis',(1.,9.8686491077792E-16,0.));
#420=DIRECTION('center_axis',(-1.,-1.61486985400023E-15,0.));
#421=DIRECTION('ref_axis',(-1.61486985400023E-15,1.,0.));
#422=DIRECTION('',(-1.61486985400023E-15,1.,0.));
#423=DIRECTION('',(-1.61486985400023E-15,1.,0.));
#424=DIRECTION('center_axis',(0.,0.,1.));
#425=DIRECTION('ref_axis',(1.,0.,0.));
#426=DIRECTION('center_axis',(0.,0.,-1.));
#427=DIRECTION('ref_axis',(0.,-1.,0.));
#428=DIRECTION('center_axis',(0.,0.,-1.));
#429=DIRECTION('ref_axis',(0.,-1.,0.));
#430=DIRECTION('',(0.,0.,-1.));
#431=DIRECTION('center_axis',(0.,0.,-1.));
#432=DIRECTION('ref_axis',(0.,-1.,0.));
#433=DIRECTION('',(0.,0.,-1.));
#434=DIRECTION('center_axis',(-5.04646829375071E-17,1.,0.));
#435=DIRECTION('ref_axis',(1.,5.04646829375071E-17,0.));
#436=DIRECTION('',(1.,5.04646829375071E-17,0.));
#437=DIRECTION('',(0.,0.,-1.));
#438=DIRECTION('',(1.,5.04646829375071E-17,0.));
#439=DIRECTION('center_axis',(0.,0.,-1.));
#440=DIRECTION('ref_axis',(0.,1.,0.));
#441=DIRECTION('center_axis',(0.,0.,-1.));
#442=DIRECTION('ref_axis',(0.,1.,0.));
#443=DIRECTION('',(0.,0.,-1.));
#444=DIRECTION('center_axis',(0.,0.,-1.));
#445=DIRECTION('ref_axis',(0.,1.,0.));
#446=DIRECTION('center_axis',(-1.00929365875014E-16,-1.,0.));
#447=DIRECTION('ref_axis',(-1.,1.00929365875014E-16,0.));
#448=DIRECTION('',(-1.,1.00929365875014E-16,0.));
#449=DIRECTION('',(-1.,1.00929365875014E-16,0.));
#450=DIRECTION('center_axis',(0.,0.,1.));
#451=DIRECTION('ref_axis',(1.,0.,0.));
#452=DIRECTION('center_axis',(0.,0.,-1.));
#453=DIRECTION('ref_axis',(-1.,0.,0.));
#454=DIRECTION('center_axis',(0.,0.,-1.));
#455=DIRECTION('ref_axis',(-1.,0.,0.));
#456=DIRECTION('',(0.,0.,-1.));
#457=DIRECTION('center_axis',(0.,0.,-1.));
#458=DIRECTION('ref_axis',(-1.,0.,0.));
#459=DIRECTION('center_axis',(0.,0.,1.));
#460=DIRECTION('ref_axis',(1.,0.,0.));
#461=DIRECTION('center_axis',(0.,0.,1.));
#462=DIRECTION('ref_axis',(1.,0.,0.));
#463=DIRECTION('center_axis',(0.,0.,-1.));
#464=DIRECTION('ref_axis',(-1.,0.,0.));
#465=DIRECTION('center_axis',(0.,0.,1.));
#466=DIRECTION('ref_axis',(-1.,0.,0.));
#467=DIRECTION('center_axis',(0.,0.,1.));
#468=DIRECTION('ref_axis',(-1.,0.,0.));
#469=DIRECTION('center_axis',(0.,0.,1.));
#470=DIRECTION('ref_axis',(-1.,0.,0.));
#471=DIRECTION('',(0.,0.,-1.));
#472=DIRECTION('center_axis',(0.,0.,1.));
#473=DIRECTION('ref_axis',(1.,0.,0.));
#474=DIRECTION('center_axis',(0.,0.,1.));
#475=DIRECTION('ref_axis',(1.,0.,0.));
#476=DIRECTION('center_axis',(0.,0.,-1.));
#477=DIRECTION('ref_axis',(-1.,0.,0.));
#478=DIRECTION('center_axis',(0.,0.,1.));
#479=DIRECTION('ref_axis',(-1.,0.,0.));
#480=DIRECTION('center_axis',(0.,0.,1.));
#481=DIRECTION('ref_axis',(-1.,0.,0.));
#482=DIRECTION('',(0.,0.,-1.));
#483=DIRECTION('center_axis',(0.,0.,1.));
#484=DIRECTION('ref_axis',(-1.,0.,0.));
#485=DIRECTION('',(0.,0.,-1.));
#486=DIRECTION('center_axis',(0.,0.,-1.));
#487=DIRECTION('ref_axis',(-1.,0.,0.));
#488=DIRECTION('center_axis',(0.,0.,1.));
#489=DIRECTION('ref_axis',(-1.,0.,0.));
#490=DIRECTION('center_axis',(0.,0.,1.));
#491=DIRECTION('ref_axis',(-1.,0.,0.));
#492=DIRECTION('',(0.,0.,-1.));
#493=DIRECTION('center_axis',(0.,0.,-1.));
#494=DIRECTION('ref_axis',(-1.,0.,0.));
#495=DIRECTION('center_axis',(0.,0.,1.));
#496=DIRECTION('ref_axis',(1.,0.,0.));
#497=DIRECTION('center_axis',(0.,0.,1.));
#498=DIRECTION('ref_axis',(1.,0.,0.));
#499=CARTESIAN_POINT('',(0.,0.,0.));
#500=CARTESIAN_POINT('Ctrl Pts',(-1.38777878078145E-15,-2.75545529808155E-15,
15.));
#501=CARTESIAN_POINT('Ctrl Pts',(-1.38777878078145E-15,-1.3676765173001E-15,
15.));
#502=CARTESIAN_POINT('Ctrl Pts',(0.,-1.3676765173001E-15,15.));
#503=CARTESIAN_POINT('Ctrl Pts',(1.38777878078145E-15,-1.3676765173001E-15,
15.));
#504=CARTESIAN_POINT('Ctrl Pts',(1.38777878078145E-15,-2.75545529808155E-15,
15.));
#505=CARTESIAN_POINT('Ctrl Pts',(1.38777878078145E-15,-4.14323407886299E-15,
15.));
#506=CARTESIAN_POINT('Ctrl Pts',(0.,-4.14323407886299E-15,15.));
#507=CARTESIAN_POINT('Ctrl Pts',(-1.38777878078145E-15,-4.14323407886299E-15,
15.));
#508=CARTESIAN_POINT('Ctrl Pts',(-1.38777878078145E-15,-2.75545529808155E-15,
15.));
#509=CARTESIAN_POINT('Ctrl Pts',(14.7661090705539,-2.69441644820534E-15,
14.6677199776093));
#510=CARTESIAN_POINT('Ctrl Pts',(14.7661090705539,-14.7661090705539,14.6677199776093));
#511=CARTESIAN_POINT('Ctrl Pts',(4.93038065763132E-31,-14.7661090705539,
14.6677199776093));
#512=CARTESIAN_POINT('Ctrl Pts',(-14.7661090705539,-14.7661090705539,14.6677199776093));
#513=CARTESIAN_POINT('Ctrl Pts',(-14.7661090705539,-2.69441644820534E-15,
14.6677199776093));
#514=CARTESIAN_POINT('Ctrl Pts',(-14.7661090705539,14.7661090705539,14.6677199776093));
#515=CARTESIAN_POINT('Ctrl Pts',(-4.93038065763132E-31,14.7661090705539,
14.6677199776093));
#516=CARTESIAN_POINT('Ctrl Pts',(14.7661090705539,14.7661090705539,14.6677199776093));
#517=CARTESIAN_POINT('Ctrl Pts',(14.7661090705539,-2.69441644820534E-15,
14.6677199776093));
#518=CARTESIAN_POINT('Ctrl Pts',(16.5,6.16297582203915E-31,-1.94289029309402E-15));
#519=CARTESIAN_POINT('Ctrl Pts',(16.5,-16.5,-4.97389112098372E-15));
#520=CARTESIAN_POINT('Ctrl Pts',(6.16297582203915E-32,-16.5,-4.97389112098372E-15));
#521=CARTESIAN_POINT('Ctrl Pts',(-16.5,-16.5,-4.97389112098372E-15));
#522=CARTESIAN_POINT('Ctrl Pts',(-16.5,4.93038065763132E-31,-1.94289029309402E-15));
#523=CARTESIAN_POINT('Ctrl Pts',(-16.5,16.5,1.08811053479568E-15));
#524=CARTESIAN_POINT('Ctrl Pts',(-6.16297582203915E-32,16.5,1.08811053479568E-15));
#525=CARTESIAN_POINT('Ctrl Pts',(16.5,16.5,1.08811053479568E-15));
#526=CARTESIAN_POINT('Ctrl Pts',(16.5,6.16297582203915E-31,-1.94289029309402E-15));
#527=CARTESIAN_POINT('',(0.,-2.75545529808154E-15,15.));
#528=CARTESIAN_POINT('',(16.5,-2.02066721859313E-15,-2.04582222374151E-31));
#529=CARTESIAN_POINT('Origin',(-0.382452187485937,4.13440550814925E-16,
-1.99569740623453));
#530=CARTESIAN_POINT('Origin',(0.,1.83301833045885E-16,0.));
#531=CARTESIAN_POINT('Origin',(24.,-2.75,496.5));
#532=CARTESIAN_POINT('',(26.25,-2.75,496.5));
#533=CARTESIAN_POINT('',(21.75,-2.75,496.5));
#534=CARTESIAN_POINT('Origin',(24.,-2.75,496.5));
#535=CARTESIAN_POINT('',(26.25,-2.75,486.5));
#536=CARTESIAN_POINT('',(26.25,-2.75,496.5));
#537=CARTESIAN_POINT('',(21.75,-2.75,486.5));
#538=CARTESIAN_POINT('Origin',(24.,-2.75,486.5));
#539=CARTESIAN_POINT('',(21.75,-2.75,496.5));
#540=CARTESIAN_POINT('Origin',(26.25,2.75,496.5));
#541=CARTESIAN_POINT('',(26.25,2.75,496.5));
#542=CARTESIAN_POINT('',(26.25,1.37500000000002,496.5));
#543=CARTESIAN_POINT('',(26.25,2.75,486.5));
#544=CARTESIAN_POINT('',(26.25,2.75,496.5));
#545=CARTESIAN_POINT('',(26.25,-2.75,486.5));
#546=CARTESIAN_POINT('Origin',(24.,2.75,496.5));
#547=CARTESIAN_POINT('',(21.75,2.75,496.5));
#548=CARTESIAN_POINT('Origin',(24.,2.75,496.5));
#549=CARTESIAN_POINT('',(21.75,2.75,486.5));
#550=CARTESIAN_POINT('',(21.75,2.75,496.5));
#551=CARTESIAN_POINT('Origin',(24.,2.75,486.5));
#552=CARTESIAN_POINT('Origin',(21.75,-2.75,496.5));
#553=CARTESIAN_POINT('',(21.75,-1.37499999999998,496.5));
#554=CARTESIAN_POINT('',(21.75,2.75,486.5));
#555=CARTESIAN_POINT('Origin',(24.,1.92721399474359E-16,486.5));
#556=CARTESIAN_POINT('Origin',(-21.25,-1.68388934882761E-16,496.5));
#557=CARTESIAN_POINT('',(-21.25,2.25,496.5));
#558=CARTESIAN_POINT('',(-21.25,-2.25,496.5));
#559=CARTESIAN_POINT('Origin',(-21.25,-1.68388934882761E-16,496.5));
#560=CARTESIAN_POINT('',(-21.25,2.25,486.5));
#561=CARTESIAN_POINT('',(-21.25,2.25,496.5));
#562=CARTESIAN_POINT('',(-21.25,-2.25,486.5));
#563=CARTESIAN_POINT('Origin',(-21.25,-1.68388934882761E-16,486.5));
#564=CARTESIAN_POINT('',(-21.25,-2.25,496.5));
#565=CARTESIAN_POINT('Origin',(-26.75,2.25,496.5));
#566=CARTESIAN_POINT('',(-26.75,2.25,496.5));
#567=CARTESIAN_POINT('',(-13.375,2.25,496.5));
#568=CARTESIAN_POINT('',(-26.75,2.25,486.5));
#569=CARTESIAN_POINT('',(-26.75,2.25,496.5));
#570=CARTESIAN_POINT('',(-21.25,2.25,486.5));
#571=CARTESIAN_POINT('Origin',(-26.75,1.68388934882761E-16,496.5));
#572=CARTESIAN_POINT('',(-26.75,-2.25,496.5));
#573=CARTESIAN_POINT('Origin',(-26.75,1.68388934882761E-16,496.5));
#574=CARTESIAN_POINT('',(-26.75,-2.25,486.5));
#575=CARTESIAN_POINT('',(-26.75,-2.25,496.5));
#576=CARTESIAN_POINT('Origin',(-26.75,1.68388934882761E-16,486.5));
#577=CARTESIAN_POINT('Origin',(-21.25,-2.25,496.5));
#578=CARTESIAN_POINT('',(-10.625,-2.25,496.5));
#579=CARTESIAN_POINT('',(-26.75,-2.25,486.5));
#580=CARTESIAN_POINT('Origin',(-24.,-2.13446260216979E-16,486.5));
#581=CARTESIAN_POINT('Origin',(0.,0.,496.5));
#582=CARTESIAN_POINT('',(5.5,6.73555739531044E-16,496.5));
#583=CARTESIAN_POINT('Origin',(0.,0.,496.5));
#584=CARTESIAN_POINT('',(5.5,6.73555739531044E-16,486.5));
#585=CARTESIAN_POINT('',(5.5,-6.73555739531044E-16,496.5));
#586=CARTESIAN_POINT('Origin',(0.,0.,486.5));
#587=CARTESIAN_POINT('Origin',(-2.24345254752611E-16,0.,486.5));
#588=CARTESIAN_POINT('Origin',(-1.88851296588266E-15,0.,465.5));
#589=CARTESIAN_POINT('',(40.,4.89858719658941E-15,465.5));
#590=CARTESIAN_POINT('Origin',(0.,0.,465.5));
#591=CARTESIAN_POINT('',(4.25,5.20474889637625E-16,465.5));
#592=CARTESIAN_POINT('Origin',(0.,0.,465.5));
#593=CARTESIAN_POINT('Origin',(0.,0.,465.5));
#594=CARTESIAN_POINT('',(40.,4.89858719658941E-15,496.5));
#595=CARTESIAN_POINT('Origin',(0.,0.,496.5));
#596=CARTESIAN_POINT('',(40.,4.89858719658941E-15,465.5));
#597=CARTESIAN_POINT('Origin',(-1.88851296588266E-15,0.,496.5));
#598=CARTESIAN_POINT('Origin',(-4.78754485754177E-16,1.08845394571094E-16,
460.));
#599=CARTESIAN_POINT('',(4.25,5.20474889637625E-16,460.));
#600=CARTESIAN_POINT('Origin',(0.,0.,460.));
#601=CARTESIAN_POINT('',(0.5,6.12323399573677E-17,460.));
#602=CARTESIAN_POINT('Origin',(0.,0.,460.));
#603=CARTESIAN_POINT('Origin',(0.,0.,460.));
#604=CARTESIAN_POINT('',(4.25,5.20474889637625E-16,460.));
#605=CARTESIAN_POINT('Origin',(0.,0.,420.));
#606=CARTESIAN_POINT('',(0.5,6.12323399573677E-17,420.));
#607=CARTESIAN_POINT('',(0.5,6.12323399573677E-17,420.));
#608=CARTESIAN_POINT('Origin',(0.,0.,420.));
#609=CARTESIAN_POINT('Origin',(0.,0.,0.));
#610=CARTESIAN_POINT('',(17.5,2.14313189850787E-15,420.));
#611=CARTESIAN_POINT('Origin',(0.,0.,420.));
#612=CARTESIAN_POINT('',(17.5,2.14313189850787E-15,0.));
#613=CARTESIAN_POINT('',(17.5,2.14313189850787E-15,0.));
#614=CARTESIAN_POINT('Origin',(0.,0.,0.));
#615=CARTESIAN_POINT('Origin',(-1.87036274335208E-15,4.22942104619107E-16,
0.));
#616=CARTESIAN_POINT('Origin',(-1.87036274335208E-15,4.22942104619107E-16,
420.));
#617=UNCERTAINTY_MEASURE_WITH_UNIT(LENGTH_MEASURE(0.01),#621,
'DISTANCE_ACCURACY_VALUE',
'Maximum model space distance between geometric entities at asserted c
onnectivities');
#618=UNCERTAINTY_MEASURE_WITH_UNIT(LENGTH_MEASURE(0.01),#621,
'DISTANCE_ACCURACY_VALUE',
'Maximum model space distance between geometric entities at asserted c
onnectivities');
#619=(
GEOMETRIC_REPRESENTATION_CONTEXT(3)
GLOBAL_UNCERTAINTY_ASSIGNED_CONTEXT((#617))
GLOBAL_UNIT_ASSIGNED_CONTEXT((#621,#623,#624))
REPRESENTATION_CONTEXT('','3D')
);
#620=(
GEOMETRIC_REPRESENTATION_CONTEXT(3)
GLOBAL_UNCERTAINTY_ASSIGNED_CONTEXT((#618))
GLOBAL_UNIT_ASSIGNED_CONTEXT((#621,#623,#624))
REPRESENTATION_CONTEXT('','3D')
);
#621=(
LENGTH_UNIT()
NAMED_UNIT(*)
SI_UNIT(.MILLI.,.METRE.)
);
#622=(
LENGTH_UNIT()
NAMED_UNIT(*)
SI_UNIT(.CENTI.,.METRE.)
);
#623=(
NAMED_UNIT(*)
PLANE_ANGLE_UNIT()
SI_UNIT($,.RADIAN.)
);
#624=(
NAMED_UNIT(*)
SI_UNIT($,.STERADIAN.)
SOLID_ANGLE_UNIT()
);
#625=SHAPE_DEFINITION_REPRESENTATION(#626,#627);
#626=PRODUCT_DEFINITION_SHAPE('',$,#629);
#627=SHAPE_REPRESENTATION('',(#352),#619);
#628=PRODUCT_DEFINITION_CONTEXT('part definition',#633,'design');
#629=PRODUCT_DEFINITION('ENG000017829','ENG000017829',#630,#628);
#630=PRODUCT_DEFINITION_FORMATION('02',$,#635);
#631=PRODUCT_RELATED_PRODUCT_CATEGORY('ENG000017829','ENG000017829',(#635));
#632=APPLICATION_PROTOCOL_DEFINITION('international standard',
'automotive_design',2009,#633);
#633=APPLICATION_CONTEXT(
'Core Data for Automotive Mechanical Design Process');
#634=PRODUCT_CONTEXT('part definition',#633,'mechanical');
#635=PRODUCT('ENG000017829','ENG000017829','SIMPLE',(#634));
#636=PRESENTATION_STYLE_ASSIGNMENT((#637));
#637=SURFACE_STYLE_USAGE(.BOTH.,#640);
#638=SURFACE_STYLE_RENDERING_WITH_PROPERTIES($,#644,(#639));
#639=SURFACE_STYLE_TRANSPARENT(0.);
#640=SURFACE_SIDE_STYLE('',(#641,#638));
#641=SURFACE_STYLE_FILL_AREA(#642);
#642=FILL_AREA_STYLE('',(#643));
#643=FILL_AREA_STYLE_COLOUR('',#644);
#644=COLOUR_RGB('',1.,1.,1.);
ENDSEC;
END-ISO-10303-21;
