ISO-10303-21;
HEADER;
/* Generated by software containing ST-Developer
 * from STEP Tools, Inc. (www.steptools.com) 
 */

FILE_DESCRIPTION(
/* description */ ('This is a sample STEP configuration'),
/* implementation_level */ '2;1');

FILE_NAME(
/* name */ '715-0702020xxxxxx SIMPLE.ipt_Rev_01.stp',
/* time_stamp */ '2023-10-11T08:21:47+02:00',
/* author */ ('powerJobs'),
/* organization */ ('coolOrange'),
/* preprocessor_version */ 'ST-DEVELOPER v19.2',
/* originating_system */ 'Autodesk Inventor 2023',
/* authorisation */ '');

FILE_SCHEMA (('AUTOMOTIVE_DESIGN { 1 0 10303 214 3 1 1 }'));
ENDSEC;

DATA;
#10=MECHANICAL_DESIGN_GEOMETRIC_PRESENTATION_REPRESENTATION('',(#13),#334);
#11=SHAPE_REPRESENTATION_RELATIONSHIP('SRR','None',#341,#12);
#12=ADVANCED_BREP_SHAPE_REPRESENTATION('',(#14),#333);
#13=STYLED_ITEM('',(#350),#14);
#14=MANIFOLD_SOLID_BREP('Volumenk\X\F6rper10',#197);
#15=FACE_BOUND('',#33,.T.);
#16=FACE_OUTER_BOUND('',#27,.T.);
#17=FACE_OUTER_BOUND('',#28,.T.);
#18=FACE_OUTER_BOUND('',#29,.T.);
#19=FACE_OUTER_BOUND('',#30,.T.);
#20=FACE_OUTER_BOUND('',#31,.T.);
#21=FACE_OUTER_BOUND('',#32,.T.);
#22=FACE_OUTER_BOUND('',#34,.T.);
#23=FACE_OUTER_BOUND('',#35,.T.);
#24=FACE_OUTER_BOUND('',#36,.T.);
#25=FACE_OUTER_BOUND('',#37,.T.);
#26=FACE_OUTER_BOUND('',#38,.T.);
#27=EDGE_LOOP('',(#127,#128,#129,#130));
#28=EDGE_LOOP('',(#131,#132,#133,#134));
#29=EDGE_LOOP('',(#135,#136,#137,#138));
#30=EDGE_LOOP('',(#139,#140,#141,#142));
#31=EDGE_LOOP('',(#143,#144,#145,#146));
#32=EDGE_LOOP('',(#147,#148,#149,#150));
#33=EDGE_LOOP('',(#151,#152,#153,#154));
#34=EDGE_LOOP('',(#155,#156,#157,#158));
#35=EDGE_LOOP('',(#159,#160,#161,#162));
#36=EDGE_LOOP('',(#163,#164,#165,#166));
#37=EDGE_LOOP('',(#167,#168,#169,#170));
#38=EDGE_LOOP('',(#171,#172,#173,#174));
#39=LINE('',#283,#63);
#40=LINE('',#285,#64);
#41=LINE('',#287,#65);
#42=LINE('',#288,#66);
#43=LINE('',#291,#67);
#44=LINE('',#293,#68);
#45=LINE('',#294,#69);
#46=LINE('',#297,#70);
#47=LINE('',#299,#71);
#48=LINE('',#300,#72);
#49=LINE('',#302,#73);
#50=LINE('',#303,#74);
#51=LINE('',#308,#75);
#52=LINE('',#310,#76);
#53=LINE('',#312,#77);
#54=LINE('',#313,#78);
#55=LINE('',#317,#79);
#56=LINE('',#318,#80);
#57=LINE('',#319,#81);
#58=LINE('',#322,#82);
#59=LINE('',#323,#83);
#60=LINE('',#326,#84);
#61=LINE('',#327,#85);
#62=LINE('',#329,#86);
#63=VECTOR('',#235,1000.);
#64=VECTOR('',#236,1000.);
#65=VECTOR('',#237,1000.);
#66=VECTOR('',#238,1000.);
#67=VECTOR('',#241,1000.);
#68=VECTOR('',#242,1000.);
#69=VECTOR('',#243,1000.);
#70=VECTOR('',#246,1000.);
#71=VECTOR('',#247,1000.);
#72=VECTOR('',#248,1000.);
#73=VECTOR('',#251,1000.);
#74=VECTOR('',#252,1000.);
#75=VECTOR('',#257,1000.);
#76=VECTOR('',#258,1000.89206066013);
#77=VECTOR('',#259,1000.);
#78=VECTOR('',#260,1000.89206066013);
#79=VECTOR('',#263,1000.89206066013);
#80=VECTOR('',#264,1000.);
#81=VECTOR('',#265,1000.);
#82=VECTOR('',#268,1000.);
#83=VECTOR('',#269,1000.);
#84=VECTOR('',#272,1000.89206066013);
#85=VECTOR('',#273,1000.);
#86=VECTOR('',#276,1000.);
#87=VERTEX_POINT('',#281);
#88=VERTEX_POINT('',#282);
#89=VERTEX_POINT('',#284);
#90=VERTEX_POINT('',#286);
#91=VERTEX_POINT('',#290);
#92=VERTEX_POINT('',#292);
#93=VERTEX_POINT('',#296);
#94=VERTEX_POINT('',#298);
#95=VERTEX_POINT('',#306);
#96=VERTEX_POINT('',#307);
#97=VERTEX_POINT('',#309);
#98=VERTEX_POINT('',#311);
#99=VERTEX_POINT('',#315);
#100=VERTEX_POINT('',#316);
#101=VERTEX_POINT('',#321);
#102=VERTEX_POINT('',#325);
#103=EDGE_CURVE('',#87,#88,#39,.T.);
#104=EDGE_CURVE('',#89,#87,#40,.T.);
#105=EDGE_CURVE('',#89,#90,#41,.T.);
#106=EDGE_CURVE('',#90,#88,#42,.T.);
#107=EDGE_CURVE('',#88,#91,#43,.T.);
#108=EDGE_CURVE('',#90,#92,#44,.T.);
#109=EDGE_CURVE('',#91,#92,#45,.T.);
#110=EDGE_CURVE('',#91,#93,#46,.T.);
#111=EDGE_CURVE('',#92,#94,#47,.T.);
#112=EDGE_CURVE('',#94,#93,#48,.T.);
#113=EDGE_CURVE('',#93,#87,#49,.T.);
#114=EDGE_CURVE('',#94,#89,#50,.T.);
#115=EDGE_CURVE('',#95,#96,#51,.T.);
#116=EDGE_CURVE('',#97,#95,#52,.T.);
#117=EDGE_CURVE('',#98,#97,#53,.T.);
#118=EDGE_CURVE('',#96,#98,#54,.T.);
#119=EDGE_CURVE('',#99,#100,#55,.T.);
#120=EDGE_CURVE('',#96,#99,#56,.T.);
#121=EDGE_CURVE('',#100,#98,#57,.T.);
#122=EDGE_CURVE('',#100,#101,#58,.T.);
#123=EDGE_CURVE('',#101,#97,#59,.T.);
#124=EDGE_CURVE('',#101,#102,#60,.T.);
#125=EDGE_CURVE('',#102,#95,#61,.T.);
#126=EDGE_CURVE('',#102,#99,#62,.T.);
#127=ORIENTED_EDGE('',*,*,#103,.F.);
#128=ORIENTED_EDGE('',*,*,#104,.F.);
#129=ORIENTED_EDGE('',*,*,#105,.T.);
#130=ORIENTED_EDGE('',*,*,#106,.T.);
#131=ORIENTED_EDGE('',*,*,#107,.F.);
#132=ORIENTED_EDGE('',*,*,#106,.F.);
#133=ORIENTED_EDGE('',*,*,#108,.T.);
#134=ORIENTED_EDGE('',*,*,#109,.F.);
#135=ORIENTED_EDGE('',*,*,#110,.F.);
#136=ORIENTED_EDGE('',*,*,#109,.T.);
#137=ORIENTED_EDGE('',*,*,#111,.T.);
#138=ORIENTED_EDGE('',*,*,#112,.T.);
#139=ORIENTED_EDGE('',*,*,#113,.F.);
#140=ORIENTED_EDGE('',*,*,#112,.F.);
#141=ORIENTED_EDGE('',*,*,#114,.T.);
#142=ORIENTED_EDGE('',*,*,#104,.T.);
#143=ORIENTED_EDGE('',*,*,#111,.F.);
#144=ORIENTED_EDGE('',*,*,#108,.F.);
#145=ORIENTED_EDGE('',*,*,#105,.F.);
#146=ORIENTED_EDGE('',*,*,#114,.F.);
#147=ORIENTED_EDGE('',*,*,#115,.F.);
#148=ORIENTED_EDGE('',*,*,#116,.F.);
#149=ORIENTED_EDGE('',*,*,#117,.F.);
#150=ORIENTED_EDGE('',*,*,#118,.F.);
#151=ORIENTED_EDGE('',*,*,#110,.T.);
#152=ORIENTED_EDGE('',*,*,#113,.T.);
#153=ORIENTED_EDGE('',*,*,#103,.T.);
#154=ORIENTED_EDGE('',*,*,#107,.T.);
#155=ORIENTED_EDGE('',*,*,#119,.F.);
#156=ORIENTED_EDGE('',*,*,#120,.F.);
#157=ORIENTED_EDGE('',*,*,#118,.T.);
#158=ORIENTED_EDGE('',*,*,#121,.F.);
#159=ORIENTED_EDGE('',*,*,#122,.F.);
#160=ORIENTED_EDGE('',*,*,#121,.T.);
#161=ORIENTED_EDGE('',*,*,#117,.T.);
#162=ORIENTED_EDGE('',*,*,#123,.F.);
#163=ORIENTED_EDGE('',*,*,#124,.F.);
#164=ORIENTED_EDGE('',*,*,#123,.T.);
#165=ORIENTED_EDGE('',*,*,#116,.T.);
#166=ORIENTED_EDGE('',*,*,#125,.F.);
#167=ORIENTED_EDGE('',*,*,#126,.F.);
#168=ORIENTED_EDGE('',*,*,#125,.T.);
#169=ORIENTED_EDGE('',*,*,#115,.T.);
#170=ORIENTED_EDGE('',*,*,#120,.T.);
#171=ORIENTED_EDGE('',*,*,#119,.T.);
#172=ORIENTED_EDGE('',*,*,#122,.T.);
#173=ORIENTED_EDGE('',*,*,#124,.T.);
#174=ORIENTED_EDGE('',*,*,#126,.T.);
#175=PLANE('',#220);
#176=PLANE('',#221);
#177=PLANE('',#222);
#178=PLANE('',#223);
#179=PLANE('',#224);
#180=PLANE('',#225);
#181=PLANE('',#226);
#182=PLANE('',#227);
#183=PLANE('',#228);
#184=PLANE('',#229);
#185=PLANE('',#230);
#186=ADVANCED_FACE('',(#16),#175,.F.);
#187=ADVANCED_FACE('',(#17),#176,.T.);
#188=ADVANCED_FACE('',(#18),#177,.T.);
#189=ADVANCED_FACE('',(#19),#178,.F.);
#190=ADVANCED_FACE('',(#20),#179,.T.);
#191=ADVANCED_FACE('',(#21,#15),#180,.T.);
#192=ADVANCED_FACE('',(#22),#181,.F.);
#193=ADVANCED_FACE('',(#23),#182,.T.);
#194=ADVANCED_FACE('',(#24),#183,.T.);
#195=ADVANCED_FACE('',(#25),#184,.F.);
#196=ADVANCED_FACE('',(#26),#185,.F.);
#197=CLOSED_SHELL('',(#186,#187,#188,#189,#190,#191,#192,#193,#194,#195,
#196));
#198=DERIVED_UNIT_ELEMENT(#201,1.);
#199=DERIVED_UNIT_ELEMENT(#336,-3.);
#200=DIMENSIONAL_EXPONENTS(0.,1.,0.,0.,0.,0.,0.);
#201=(
CONVERSION_BASED_UNIT('gram',#203)
MASS_UNIT()
NAMED_UNIT(#200)
);
#202=(
MASS_UNIT()
NAMED_UNIT(*)
SI_UNIT(.KILO.,.GRAM.)
);
#203=MASS_MEASURE_WITH_UNIT(MASS_MEASURE(0.001),#202);
#204=DERIVED_UNIT((#198,#199));
#205=MEASURE_REPRESENTATION_ITEM('density measure',
POSITIVE_RATIO_MEASURE(0.),#204);
#206=PROPERTY_DEFINITION_REPRESENTATION(#211,#208);
#207=PROPERTY_DEFINITION_REPRESENTATION(#212,#209);
#208=REPRESENTATION('material name',(#210),#333);
#209=REPRESENTATION('density',(#205),#333);
#210=DESCRIPTIVE_REPRESENTATION_ITEM('ACC.TECHN. INFO',
'ACC.TECHN. INFO');
#211=PROPERTY_DEFINITION('material property','material name',#343);
#212=PROPERTY_DEFINITION('material property','density of part',#343);
#213=DATE_TIME_ROLE('creation_date');
#214=APPLIED_DATE_AND_TIME_ASSIGNMENT(#215,#213,(#343));
#215=DATE_AND_TIME(#216,#217);
#216=CALENDAR_DATE(2022,9,2);
#217=LOCAL_TIME(0,0,0.,#218);
#218=COORDINATED_UNIVERSAL_TIME_OFFSET(0,0,.BEHIND.);
#219=AXIS2_PLACEMENT_3D('placement',#279,#231,#232);
#220=AXIS2_PLACEMENT_3D('',#280,#233,#234);
#221=AXIS2_PLACEMENT_3D('',#289,#239,#240);
#222=AXIS2_PLACEMENT_3D('',#295,#244,#245);
#223=AXIS2_PLACEMENT_3D('',#301,#249,#250);
#224=AXIS2_PLACEMENT_3D('',#304,#253,#254);
#225=AXIS2_PLACEMENT_3D('',#305,#255,#256);
#226=AXIS2_PLACEMENT_3D('',#314,#261,#262);
#227=AXIS2_PLACEMENT_3D('',#320,#266,#267);
#228=AXIS2_PLACEMENT_3D('',#324,#270,#271);
#229=AXIS2_PLACEMENT_3D('',#328,#274,#275);
#230=AXIS2_PLACEMENT_3D('',#330,#277,#278);
#231=DIRECTION('axis',(0.,0.,1.));
#232=DIRECTION('refdir',(1.,0.,0.));
#233=DIRECTION('center_axis',(1.,3.659943999988E-34,1.55467358125388E-47));
#234=DIRECTION('ref_axis',(1.55467358125388E-47,0.,-1.));
#235=DIRECTION('',(3.659943999988E-34,-1.,2.28542626113333E-35));
#236=DIRECTION('',(0.,0.,1.));
#237=DIRECTION('',(0.,-1.,0.));
#238=DIRECTION('',(0.,0.,1.));
#239=DIRECTION('center_axis',(-4.39977903835037E-31,1.,8.98288220329867E-31));
#240=DIRECTION('ref_axis',(0.,-8.98288220329867E-31,1.));
#241=DIRECTION('',(-1.,-4.39977903835037E-31,1.01846736998851E-32));
#242=DIRECTION('',(-1.,0.,0.));
#243=DIRECTION('',(0.,0.,-1.));
#244=DIRECTION('center_axis',(1.,3.659943999988E-34,-1.55467358125388E-47));
#245=DIRECTION('ref_axis',(-1.55467358125388E-47,0.,-1.));
#246=DIRECTION('',(-3.659943999988E-34,1.,-2.28542626113333E-35));
#247=DIRECTION('',(0.,1.,0.));
#248=DIRECTION('',(0.,0.,1.));
#249=DIRECTION('center_axis',(-4.39977903835037E-31,1.,-8.98288220329867E-31));
#250=DIRECTION('ref_axis',(0.,8.98288220329867E-31,1.));
#251=DIRECTION('',(1.,4.39977903835037E-31,-1.01846736998851E-32));
#252=DIRECTION('',(1.,0.,0.));
#253=DIRECTION('center_axis',(-6.30176685180392E-33,-8.00612749997375E-35,
1.));
#254=DIRECTION('ref_axis',(1.,0.,6.30176685180392E-33));
#255=DIRECTION('center_axis',(1.01846736998851E-32,2.28542626113333E-35,
1.));
#256=DIRECTION('ref_axis',(1.,0.,-1.01846736998851E-32));
#257=DIRECTION('',(-1.,0.,0.));
#258=DIRECTION('',(0.,-1.,0.));
#259=DIRECTION('',(1.,0.,0.));
#260=DIRECTION('',(0.,1.,0.));
#261=DIRECTION('center_axis',(1.,6.39919353117332E-34,-1.00828269628863E-31));
#262=DIRECTION('ref_axis',(-1.00828269628863E-31,0.,-1.));
#263=DIRECTION('',(0.,1.,0.));
#264=DIRECTION('',(0.,0.,-1.));
#265=DIRECTION('',(0.,0.,1.));
#266=DIRECTION('center_axis',(-1.30480115796851E-31,1.,-5.8716052108583E-31));
#267=DIRECTION('ref_axis',(0.,5.8716052108583E-31,1.));
#268=DIRECTION('',(1.,0.,0.));
#269=DIRECTION('',(0.,0.,1.));
#270=DIRECTION('center_axis',(1.,6.39919353117332E-34,1.00828269628863E-31));
#271=DIRECTION('ref_axis',(1.00828269628863E-31,0.,-1.));
#272=DIRECTION('',(0.,-1.,0.));
#273=DIRECTION('',(0.,0.,1.));
#274=DIRECTION('center_axis',(-1.30480115796851E-31,1.,5.8716052108583E-31));
#275=DIRECTION('ref_axis',(0.,-5.8716052108583E-31,1.));
#276=DIRECTION('',(-1.,0.,0.));
#277=DIRECTION('center_axis',(1.62954779198162E-32,-1.82834100890666E-34,
1.));
#278=DIRECTION('ref_axis',(1.,0.,-1.62954779198162E-32));
#279=CARTESIAN_POINT('',(0.,0.,0.));
#280=CARTESIAN_POINT('Origin',(7.,0.,1.74999999999992));
#281=CARTESIAN_POINT('',(7.,560.5,1.74999999999997));
#282=CARTESIAN_POINT('',(7.,-560.5,1.74999999999997));
#283=CARTESIAN_POINT('',(7.,1.2809803999958E-33,1.74999999999997));
#284=CARTESIAN_POINT('',(7.,560.5,0.749999999999918));
#285=CARTESIAN_POINT('',(7.,560.5,0.749999999999918));
#286=CARTESIAN_POINT('',(7.,-560.5,0.749999999999918));
#287=CARTESIAN_POINT('',(7.,560.5,0.749999999999918));
#288=CARTESIAN_POINT('',(7.,-560.5,0.749999999999918));
#289=CARTESIAN_POINT('Origin',(0.,-560.5,1.74999999999992));
#290=CARTESIAN_POINT('',(-7.,-560.5,1.74999999999997));
#291=CARTESIAN_POINT('',(1.23303807549769E-28,-560.5,1.74999999999997));
#292=CARTESIAN_POINT('',(-7.,-560.5,0.749999999999918));
#293=CARTESIAN_POINT('',(7.,-560.5,0.749999999999918));
#294=CARTESIAN_POINT('',(-7.,-560.5,2.74999999999992));
#295=CARTESIAN_POINT('Origin',(-7.,0.,1.74999999999992));
#296=CARTESIAN_POINT('',(-7.,560.5,1.74999999999997));
#297=CARTESIAN_POINT('',(-7.,-1.2809803999958E-33,1.74999999999997));
#298=CARTESIAN_POINT('',(-7.,560.5,0.749999999999918));
#299=CARTESIAN_POINT('',(-7.,-560.5,0.749999999999918));
#300=CARTESIAN_POINT('',(-7.,560.5,0.749999999999918));
#301=CARTESIAN_POINT('Origin',(0.,560.5,1.74999999999992));
#302=CARTESIAN_POINT('',(-1.23303807549769E-28,560.5,1.74999999999997));
#303=CARTESIAN_POINT('',(-7.,560.5,0.749999999999918));
#304=CARTESIAN_POINT('Origin',(3.89044912513821E-18,0.,0.749999999999918));
#305=CARTESIAN_POINT('Origin',(0.,0.,1.74999999999997));
#306=CARTESIAN_POINT('',(10.5,-561.,1.74999999999997));
#307=CARTESIAN_POINT('',(-10.5,-561.,1.74999999999997));
#308=CARTESIAN_POINT('',(10.5,-561.,1.74999999999997));
#309=CARTESIAN_POINT('',(10.5,561.,1.74999999999997));
#310=CARTESIAN_POINT('',(10.5,561.,1.74999999999997));
#311=CARTESIAN_POINT('',(-10.5,561.,1.74999999999997));
#312=CARTESIAN_POINT('',(-10.5,561.,1.74999999999997));
#313=CARTESIAN_POINT('',(-10.5,-561.,1.74999999999997));
#314=CARTESIAN_POINT('Origin',(-10.5,0.,-1.75000000000003));
#315=CARTESIAN_POINT('',(-10.5,-561.,-5.25000000000003));
#316=CARTESIAN_POINT('',(-10.5,561.,-5.25000000000003));
#317=CARTESIAN_POINT('',(-10.5,-561.,-5.25000000000003));
#318=CARTESIAN_POINT('',(-10.5,-561.,1.74999999999997));
#319=CARTESIAN_POINT('',(-10.5,561.,-5.25000000000003));
#320=CARTESIAN_POINT('Origin',(0.,561.,-1.75000000000003));
#321=CARTESIAN_POINT('',(10.5,561.,-5.25000000000003));
#322=CARTESIAN_POINT('',(-10.5,561.,-5.25000000000003));
#323=CARTESIAN_POINT('',(10.5,561.,-5.25000000000003));
#324=CARTESIAN_POINT('Origin',(10.5,0.,-1.75000000000003));
#325=CARTESIAN_POINT('',(10.5,-561.,-5.25000000000003));
#326=CARTESIAN_POINT('',(10.5,561.,-5.25000000000003));
#327=CARTESIAN_POINT('',(10.5,-561.,-5.25000000000003));
#328=CARTESIAN_POINT('Origin',(0.,-561.,-1.75000000000003));
#329=CARTESIAN_POINT('',(10.5,-561.,-5.25000000000003));
#330=CARTESIAN_POINT('Origin',(-2.89995167931165E-18,0.,-5.25000000000003));
#331=UNCERTAINTY_MEASURE_WITH_UNIT(LENGTH_MEASURE(0.01),#335,
'DISTANCE_ACCURACY_VALUE',
'Maximum model space distance between geometric entities at asserted c
onnectivities');
#332=UNCERTAINTY_MEASURE_WITH_UNIT(LENGTH_MEASURE(0.01),#335,
'DISTANCE_ACCURACY_VALUE',
'Maximum model space distance between geometric entities at asserted c
onnectivities');
#333=(
GEOMETRIC_REPRESENTATION_CONTEXT(3)
GLOBAL_UNCERTAINTY_ASSIGNED_CONTEXT((#331))
GLOBAL_UNIT_ASSIGNED_CONTEXT((#335,#337,#338))
REPRESENTATION_CONTEXT('','3D')
);
#334=(
GEOMETRIC_REPRESENTATION_CONTEXT(3)
GLOBAL_UNCERTAINTY_ASSIGNED_CONTEXT((#332))
GLOBAL_UNIT_ASSIGNED_CONTEXT((#335,#337,#338))
REPRESENTATION_CONTEXT('','3D')
);
#335=(
LENGTH_UNIT()
NAMED_UNIT(*)
SI_UNIT(.MILLI.,.METRE.)
);
#336=(
LENGTH_UNIT()
NAMED_UNIT(*)
SI_UNIT(.CENTI.,.METRE.)
);
#337=(
NAMED_UNIT(*)
PLANE_ANGLE_UNIT()
SI_UNIT($,.RADIAN.)
);
#338=(
NAMED_UNIT(*)
SI_UNIT($,.STERADIAN.)
SOLID_ANGLE_UNIT()
);
#339=SHAPE_DEFINITION_REPRESENTATION(#340,#341);
#340=PRODUCT_DEFINITION_SHAPE('',$,#343);
#341=SHAPE_REPRESENTATION('',(#219),#333);
#342=PRODUCT_DEFINITION_CONTEXT('part definition',#347,'design');
#343=PRODUCT_DEFINITION('ENG000025139','ENG000025139',#344,#342);
#344=PRODUCT_DEFINITION_FORMATION('00.1',$,#349);
#345=PRODUCT_RELATED_PRODUCT_CATEGORY('ENG000025139','ENG000025139',(#349));
#346=APPLICATION_PROTOCOL_DEFINITION('international standard',
'automotive_design',2009,#347);
#347=APPLICATION_CONTEXT(
'Core Data for Automotive Mechanical Design Process');
#348=PRODUCT_CONTEXT('part definition',#347,'mechanical');
#349=PRODUCT('ENG000025139','ENG000025139','SIMPLE',(#348));
#350=PRESENTATION_STYLE_ASSIGNMENT((#351));
#351=SURFACE_STYLE_USAGE(.BOTH.,#354);
#352=SURFACE_STYLE_RENDERING_WITH_PROPERTIES($,#358,(#353));
#353=SURFACE_STYLE_TRANSPARENT(0.);
#354=SURFACE_SIDE_STYLE('',(#355,#352));
#355=SURFACE_STYLE_FILL_AREA(#356);
#356=FILL_AREA_STYLE('',(#357));
#357=FILL_AREA_STYLE_COLOUR('',#358);
#358=COLOUR_RGB('',1.,1.,0.);
ENDSEC;
END-ISO-10303-21;
