ISO-10303-21;
HEADER;
/* Generated by software containing ST-Developer
 * from STEP Tools, Inc. (www.steptools.com) 
 */

FILE_DESCRIPTION(
/* description */ ('This is a sample STEP configuration'),
/* implementation_level */ '2;1');

FILE_NAME(
/* name */ '715-07020b0xxxxxx SIMPLE.ipt_Rev_01.stp',
/* time_stamp */ '2023-10-09T09:54:34+02:00',
/* author */ ('powerJobs'),
/* organization */ ('coolOrange'),
/* preprocessor_version */ 'ST-DEVELOPER v19.2',
/* originating_system */ 'Autodesk Inventor 2023',
/* authorisation */ '');

FILE_SCHEMA (('AUTOMOTIVE_DESIGN { 1 0 10303 214 3 1 1 }'));
ENDSEC;

DATA;
#10=MECHANICAL_DESIGN_GEOMETRIC_PRESENTATION_REPRESENTATION('',(#13),#324);
#11=SHAPE_REPRESENTATION_RELATIONSHIP('SRR','None',#331,#12);
#12=ADVANCED_BREP_SHAPE_REPRESENTATION('',(#14),#323);
#13=STYLED_ITEM('',(#340),#14);
#14=MANIFOLD_SOLID_BREP('Volumenk\X\F6rper2',#191);
#15=FACE_OUTER_BOUND('',#25,.T.);
#16=FACE_OUTER_BOUND('',#26,.T.);
#17=FACE_OUTER_BOUND('',#27,.T.);
#18=FACE_OUTER_BOUND('',#28,.T.);
#19=FACE_OUTER_BOUND('',#29,.T.);
#20=FACE_OUTER_BOUND('',#30,.T.);
#21=FACE_OUTER_BOUND('',#31,.T.);
#22=FACE_OUTER_BOUND('',#32,.T.);
#23=FACE_OUTER_BOUND('',#33,.T.);
#24=FACE_OUTER_BOUND('',#34,.T.);
#25=EDGE_LOOP('',(#123,#124,#125,#126));
#26=EDGE_LOOP('',(#127,#128,#129,#130));
#27=EDGE_LOOP('',(#131,#132,#133,#134));
#28=EDGE_LOOP('',(#135,#136,#137,#138,#139,#140,#141,#142));
#29=EDGE_LOOP('',(#143,#144,#145,#146));
#30=EDGE_LOOP('',(#147,#148,#149,#150));
#31=EDGE_LOOP('',(#151,#152,#153,#154));
#32=EDGE_LOOP('',(#155,#156,#157,#158,#159,#160,#161,#162));
#33=EDGE_LOOP('',(#163,#164,#165,#166));
#34=EDGE_LOOP('',(#167,#168,#169,#170));
#35=LINE('',#274,#59);
#36=LINE('',#276,#60);
#37=LINE('',#278,#61);
#38=LINE('',#279,#62);
#39=LINE('',#283,#63);
#40=LINE('',#285,#64);
#41=LINE('',#287,#65);
#42=LINE('',#288,#66);
#43=LINE('',#290,#67);
#44=LINE('',#291,#68);
#45=LINE('',#294,#69);
#46=LINE('',#296,#70);
#47=LINE('',#298,#71);
#48=LINE('',#300,#72);
#49=LINE('',#301,#73);
#50=LINE('',#304,#74);
#51=LINE('',#305,#75);
#52=LINE('',#308,#76);
#53=LINE('',#309,#77);
#54=LINE('',#312,#78);
#55=LINE('',#313,#79);
#56=LINE('',#316,#80);
#57=LINE('',#317,#81);
#58=LINE('',#319,#82);
#59=VECTOR('',#228,1000.);
#60=VECTOR('',#229,1000.);
#61=VECTOR('',#230,1000.);
#62=VECTOR('',#231,1000.);
#63=VECTOR('',#234,1000.);
#64=VECTOR('',#235,1000.);
#65=VECTOR('',#236,1000.);
#66=VECTOR('',#237,1000.);
#67=VECTOR('',#240,1000.);
#68=VECTOR('',#241,1000.);
#69=VECTOR('',#244,1000.);
#70=VECTOR('',#245,1000.);
#71=VECTOR('',#246,1000.);
#72=VECTOR('',#247,1000.);
#73=VECTOR('',#248,1000.);
#74=VECTOR('',#251,1000.);
#75=VECTOR('',#252,1000.);
#76=VECTOR('',#255,1000.);
#77=VECTOR('',#256,1000.);
#78=VECTOR('',#259,1000.);
#79=VECTOR('',#260,1000.);
#80=VECTOR('',#263,1000.);
#81=VECTOR('',#264,1000.);
#82=VECTOR('',#267,1000.);
#83=VERTEX_POINT('',#272);
#84=VERTEX_POINT('',#273);
#85=VERTEX_POINT('',#275);
#86=VERTEX_POINT('',#277);
#87=VERTEX_POINT('',#281);
#88=VERTEX_POINT('',#282);
#89=VERTEX_POINT('',#284);
#90=VERTEX_POINT('',#286);
#91=VERTEX_POINT('',#293);
#92=VERTEX_POINT('',#295);
#93=VERTEX_POINT('',#297);
#94=VERTEX_POINT('',#299);
#95=VERTEX_POINT('',#303);
#96=VERTEX_POINT('',#307);
#97=VERTEX_POINT('',#311);
#98=VERTEX_POINT('',#315);
#99=EDGE_CURVE('',#83,#84,#35,.T.);
#100=EDGE_CURVE('',#85,#83,#36,.T.);
#101=EDGE_CURVE('',#85,#86,#37,.T.);
#102=EDGE_CURVE('',#84,#86,#38,.T.);
#103=EDGE_CURVE('',#87,#88,#39,.T.);
#104=EDGE_CURVE('',#89,#87,#40,.T.);
#105=EDGE_CURVE('',#89,#90,#41,.T.);
#106=EDGE_CURVE('',#88,#90,#42,.T.);
#107=EDGE_CURVE('',#86,#89,#43,.T.);
#108=EDGE_CURVE('',#90,#85,#44,.T.);
#109=EDGE_CURVE('',#83,#91,#45,.T.);
#110=EDGE_CURVE('',#92,#91,#46,.T.);
#111=EDGE_CURVE('',#93,#92,#47,.T.);
#112=EDGE_CURVE('',#94,#93,#48,.T.);
#113=EDGE_CURVE('',#94,#88,#49,.T.);
#114=EDGE_CURVE('',#95,#84,#50,.T.);
#115=EDGE_CURVE('',#91,#95,#51,.T.);
#116=EDGE_CURVE('',#96,#94,#52,.T.);
#117=EDGE_CURVE('',#87,#96,#53,.T.);
#118=EDGE_CURVE('',#92,#97,#54,.T.);
#119=EDGE_CURVE('',#97,#95,#55,.T.);
#120=EDGE_CURVE('',#98,#96,#56,.T.);
#121=EDGE_CURVE('',#97,#98,#57,.T.);
#122=EDGE_CURVE('',#98,#93,#58,.T.);
#123=ORIENTED_EDGE('',*,*,#99,.F.);
#124=ORIENTED_EDGE('',*,*,#100,.F.);
#125=ORIENTED_EDGE('',*,*,#101,.T.);
#126=ORIENTED_EDGE('',*,*,#102,.F.);
#127=ORIENTED_EDGE('',*,*,#103,.F.);
#128=ORIENTED_EDGE('',*,*,#104,.F.);
#129=ORIENTED_EDGE('',*,*,#105,.T.);
#130=ORIENTED_EDGE('',*,*,#106,.F.);
#131=ORIENTED_EDGE('',*,*,#107,.F.);
#132=ORIENTED_EDGE('',*,*,#101,.F.);
#133=ORIENTED_EDGE('',*,*,#108,.F.);
#134=ORIENTED_EDGE('',*,*,#105,.F.);
#135=ORIENTED_EDGE('',*,*,#106,.T.);
#136=ORIENTED_EDGE('',*,*,#108,.T.);
#137=ORIENTED_EDGE('',*,*,#100,.T.);
#138=ORIENTED_EDGE('',*,*,#109,.T.);
#139=ORIENTED_EDGE('',*,*,#110,.F.);
#140=ORIENTED_EDGE('',*,*,#111,.F.);
#141=ORIENTED_EDGE('',*,*,#112,.F.);
#142=ORIENTED_EDGE('',*,*,#113,.T.);
#143=ORIENTED_EDGE('',*,*,#99,.T.);
#144=ORIENTED_EDGE('',*,*,#114,.F.);
#145=ORIENTED_EDGE('',*,*,#115,.F.);
#146=ORIENTED_EDGE('',*,*,#109,.F.);
#147=ORIENTED_EDGE('',*,*,#103,.T.);
#148=ORIENTED_EDGE('',*,*,#113,.F.);
#149=ORIENTED_EDGE('',*,*,#116,.F.);
#150=ORIENTED_EDGE('',*,*,#117,.F.);
#151=ORIENTED_EDGE('',*,*,#118,.F.);
#152=ORIENTED_EDGE('',*,*,#110,.T.);
#153=ORIENTED_EDGE('',*,*,#115,.T.);
#154=ORIENTED_EDGE('',*,*,#119,.F.);
#155=ORIENTED_EDGE('',*,*,#104,.T.);
#156=ORIENTED_EDGE('',*,*,#117,.T.);
#157=ORIENTED_EDGE('',*,*,#120,.F.);
#158=ORIENTED_EDGE('',*,*,#121,.F.);
#159=ORIENTED_EDGE('',*,*,#119,.T.);
#160=ORIENTED_EDGE('',*,*,#114,.T.);
#161=ORIENTED_EDGE('',*,*,#102,.T.);
#162=ORIENTED_EDGE('',*,*,#107,.T.);
#163=ORIENTED_EDGE('',*,*,#122,.F.);
#164=ORIENTED_EDGE('',*,*,#120,.T.);
#165=ORIENTED_EDGE('',*,*,#116,.T.);
#166=ORIENTED_EDGE('',*,*,#112,.T.);
#167=ORIENTED_EDGE('',*,*,#111,.T.);
#168=ORIENTED_EDGE('',*,*,#118,.T.);
#169=ORIENTED_EDGE('',*,*,#121,.T.);
#170=ORIENTED_EDGE('',*,*,#122,.T.);
#171=PLANE('',#214);
#172=PLANE('',#215);
#173=PLANE('',#216);
#174=PLANE('',#217);
#175=PLANE('',#218);
#176=PLANE('',#219);
#177=PLANE('',#220);
#178=PLANE('',#221);
#179=PLANE('',#222);
#180=PLANE('',#223);
#181=ADVANCED_FACE('',(#15),#171,.T.);
#182=ADVANCED_FACE('',(#16),#172,.F.);
#183=ADVANCED_FACE('',(#17),#173,.T.);
#184=ADVANCED_FACE('',(#18),#174,.F.);
#185=ADVANCED_FACE('',(#19),#175,.T.);
#186=ADVANCED_FACE('',(#20),#176,.T.);
#187=ADVANCED_FACE('',(#21),#177,.T.);
#188=ADVANCED_FACE('',(#22),#178,.T.);
#189=ADVANCED_FACE('',(#23),#179,.F.);
#190=ADVANCED_FACE('',(#24),#180,.F.);
#191=CLOSED_SHELL('',(#181,#182,#183,#184,#185,#186,#187,#188,#189,#190));
#192=DERIVED_UNIT_ELEMENT(#195,1.);
#193=DERIVED_UNIT_ELEMENT(#326,-3.);
#194=DIMENSIONAL_EXPONENTS(0.,1.,0.,0.,0.,0.,0.);
#195=(
CONVERSION_BASED_UNIT('gram',#197)
MASS_UNIT()
NAMED_UNIT(#194)
);
#196=(
MASS_UNIT()
NAMED_UNIT(*)
SI_UNIT(.KILO.,.GRAM.)
);
#197=MASS_MEASURE_WITH_UNIT(MASS_MEASURE(0.001),#196);
#198=DERIVED_UNIT((#192,#193));
#199=MEASURE_REPRESENTATION_ITEM('density measure',
POSITIVE_RATIO_MEASURE(0.),#198);
#200=PROPERTY_DEFINITION_REPRESENTATION(#205,#202);
#201=PROPERTY_DEFINITION_REPRESENTATION(#206,#203);
#202=REPRESENTATION('material name',(#204),#323);
#203=REPRESENTATION('density',(#199),#323);
#204=DESCRIPTIVE_REPRESENTATION_ITEM('ACC.TECHN. INFO',
'ACC.TECHN. INFO');
#205=PROPERTY_DEFINITION('material property','material name',#333);
#206=PROPERTY_DEFINITION('material property','density of part',#333);
#207=DATE_TIME_ROLE('creation_date');
#208=APPLIED_DATE_AND_TIME_ASSIGNMENT(#209,#207,(#333));
#209=DATE_AND_TIME(#210,#211);
#210=CALENDAR_DATE(2022,10,2);
#211=LOCAL_TIME(0,0,0.,#212);
#212=COORDINATED_UNIVERSAL_TIME_OFFSET(0,0,.BEHIND.);
#213=AXIS2_PLACEMENT_3D('placement',#270,#224,#225);
#214=AXIS2_PLACEMENT_3D('',#271,#226,#227);
#215=AXIS2_PLACEMENT_3D('',#280,#232,#233);
#216=AXIS2_PLACEMENT_3D('',#289,#238,#239);
#217=AXIS2_PLACEMENT_3D('',#292,#242,#243);
#218=AXIS2_PLACEMENT_3D('',#302,#249,#250);
#219=AXIS2_PLACEMENT_3D('',#306,#253,#254);
#220=AXIS2_PLACEMENT_3D('',#310,#257,#258);
#221=AXIS2_PLACEMENT_3D('',#314,#261,#262);
#222=AXIS2_PLACEMENT_3D('',#318,#265,#266);
#223=AXIS2_PLACEMENT_3D('',#320,#268,#269);
#224=DIRECTION('axis',(0.,0.,1.));
#225=DIRECTION('refdir',(1.,0.,0.));
#226=DIRECTION('center_axis',(1.,6.12303176911189E-17,8.73335769765142E-32));
#227=DIRECTION('ref_axis',(-8.73335769765142E-32,-5.34746266337375E-48,
1.));
#228=DIRECTION('',(-6.12303176911189E-17,1.,9.13355735732803E-35));
#229=DIRECTION('',(-8.73335769765142E-32,5.34746266337375E-48,1.));
#230=DIRECTION('',(-6.12303176911189E-17,1.,0.));
#231=DIRECTION('',(8.73335769765142E-32,-5.34746266337375E-48,-1.));
#232=DIRECTION('center_axis',(1.,6.12303176911189E-17,-8.73335769765142E-32));
#233=DIRECTION('ref_axis',(8.73335769765142E-32,5.34746266337375E-48,1.));
#234=DIRECTION('',(6.12303176911189E-17,-1.,-9.13355735732803E-35));
#235=DIRECTION('',(8.73335769765142E-32,-5.34746266337375E-48,1.));
#236=DIRECTION('',(6.12303176911189E-17,-1.,0.));
#237=DIRECTION('',(-8.73335769765142E-32,5.34746266337375E-48,-1.));
#238=DIRECTION('center_axis',(1.69116042072892E-49,-7.99186268766186E-35,
1.));
#239=DIRECTION('ref_axis',(6.12303176911189E-17,-1.,-7.99186268766186E-35));
#240=DIRECTION('',(1.,-6.12303176911189E-17,-1.74009484985986E-49));
#241=DIRECTION('',(-1.,6.12303176911189E-17,1.74009484985986E-49));
#242=DIRECTION('center_axis',(6.12303176911189E-17,1.,0.));
#243=DIRECTION('ref_axis',(0.,0.,-1.));
#244=DIRECTION('',(-1.,6.12303176911189E-17,0.));
#245=DIRECTION('',(0.,0.,1.));
#246=DIRECTION('',(-1.,6.12303176911189E-17,0.));
#247=DIRECTION('',(0.,0.,-1.));
#248=DIRECTION('',(-1.,6.12303176911189E-17,0.));
#249=DIRECTION('center_axis',(1.62954779198162E-32,-9.13355735732793E-35,
1.));
#250=DIRECTION('ref_axis',(6.12303176911189E-17,1.,9.13355735732783E-35));
#251=DIRECTION('',(1.,-6.12303176911189E-17,0.));
#252=DIRECTION('',(6.12303176911189E-17,1.,0.));
#253=DIRECTION('center_axis',(1.62954779198162E-32,-9.13355735732793E-35,
1.));
#254=DIRECTION('ref_axis',(6.12303176911189E-17,1.,9.13355735732783E-35));
#255=DIRECTION('',(-6.12303176911189E-17,-1.,0.));
#256=DIRECTION('',(1.,-6.12303176911189E-17,0.));
#257=DIRECTION('center_axis',(-1.,6.12303176911189E-17,1.00828269628863E-31));
#258=DIRECTION('ref_axis',(1.00828269628863E-31,-6.17374698162105E-48,1.));
#259=DIRECTION('',(6.12303176911189E-17,1.,0.));
#260=DIRECTION('',(0.,0.,1.));
#261=DIRECTION('center_axis',(6.12303176911189E-17,1.,0.));
#262=DIRECTION('ref_axis',(0.,0.,-1.));
#263=DIRECTION('',(0.,0.,1.));
#264=DIRECTION('',(1.,-6.12303176911189E-17,0.));
#265=DIRECTION('center_axis',(-1.,6.12303176911189E-17,-1.00828269628863E-31));
#266=DIRECTION('ref_axis',(-1.00828269628863E-31,6.17374698162105E-48,1.));
#267=DIRECTION('',(-6.12303176911189E-17,-1.,0.));
#268=DIRECTION('center_axis',(1.01846736998851E-32,5.4801344143967E-34,
1.));
#269=DIRECTION('ref_axis',(6.12303176911189E-17,1.,-5.4801344143967E-34));
#270=CARTESIAN_POINT('',(0.,0.,0.));
#271=CARTESIAN_POINT('Origin',(-6.99999999999994,-4.28612223837828E-16,
1.90692944913473));
#272=CARTESIAN_POINT('',(-6.99999999999993,-280.5,1.59307055086549));
#273=CARTESIAN_POINT('',(-6.99999999999996,280.5,1.59307055086549));
#274=CARTESIAN_POINT('',(-6.99999999999994,-4.28612223837828E-16,1.59307055086549));
#275=CARTESIAN_POINT('',(-6.99999999999993,-280.5,0.906929449134731));
#276=CARTESIAN_POINT('',(-6.99999999999993,-280.5,1.11022302462516E-13));
#277=CARTESIAN_POINT('',(-6.99999999999996,280.5,0.906929449134731));
#278=CARTESIAN_POINT('',(-6.99999999999993,-280.5,0.906929449134731));
#279=CARTESIAN_POINT('',(-6.99999999999996,280.5,1.11022302462516E-13));
#280=CARTESIAN_POINT('Origin',(6.99999999999994,4.28612223837828E-16,1.90692944913473));
#281=CARTESIAN_POINT('',(6.99999999999993,280.5,1.59307055086549));
#282=CARTESIAN_POINT('',(6.99999999999996,-280.5,1.59307055086549));
#283=CARTESIAN_POINT('',(6.99999999999994,4.28612223837828E-16,1.59307055086549));
#284=CARTESIAN_POINT('',(6.99999999999993,280.5,0.906929449134731));
#285=CARTESIAN_POINT('',(6.99999999999993,280.5,1.11022302462516E-13));
#286=CARTESIAN_POINT('',(6.99999999999996,-280.5,0.906929449134731));
#287=CARTESIAN_POINT('',(6.99999999999993,280.5,0.906929449134731));
#288=CARTESIAN_POINT('',(6.99999999999996,-280.5,1.11022302462516E-13));
#289=CARTESIAN_POINT('Origin',(0.,0.,0.906929449134731));
#290=CARTESIAN_POINT('',(1.71751041123588E-14,280.5,0.906929449134731));
#291=CARTESIAN_POINT('',(-1.71751041123588E-14,-280.5,0.906929449134731));
#292=CARTESIAN_POINT('Origin',(-1.71751041123588E-14,-280.5,-1.90692944913451));
#293=CARTESIAN_POINT('',(-10.5,-280.5,1.59307055086549));
#294=CARTESIAN_POINT('',(10.5,-280.5,1.59307055086549));
#295=CARTESIAN_POINT('',(-10.5,-280.5,-5.40692944913451));
#296=CARTESIAN_POINT('',(-10.5,-280.5,-5.40692944913451));
#297=CARTESIAN_POINT('',(10.5,-280.5,-5.40692944913451));
#298=CARTESIAN_POINT('',(10.5,-280.5,-5.40692944913451));
#299=CARTESIAN_POINT('',(10.5,-280.5,1.59307055086549));
#300=CARTESIAN_POINT('',(10.5,-280.5,1.59307055086549));
#301=CARTESIAN_POINT('',(10.5,-280.5,1.59307055086549));
#302=CARTESIAN_POINT('Origin',(5.69028319205138E-18,-3.4841784760174E-34,
1.59307055086549));
#303=CARTESIAN_POINT('',(-10.5,280.5,1.59307055086549));
#304=CARTESIAN_POINT('',(-10.5,280.5,1.59307055086549));
#305=CARTESIAN_POINT('',(-10.5,-280.5,1.59307055086549));
#306=CARTESIAN_POINT('Origin',(5.69028319205138E-18,-3.4841784760174E-34,
1.59307055086549));
#307=CARTESIAN_POINT('',(10.5,280.5,1.59307055086549));
#308=CARTESIAN_POINT('',(10.5,280.5,1.59307055086549));
#309=CARTESIAN_POINT('',(-10.5,280.5,1.59307055086549));
#310=CARTESIAN_POINT('Origin',(-10.5,6.42918335756748E-16,-1.90692944913451));
#311=CARTESIAN_POINT('',(-10.5,280.5,-5.40692944913451));
#312=CARTESIAN_POINT('',(-10.5,-280.5,-5.40692944913451));
#313=CARTESIAN_POINT('',(-10.5,280.5,-5.40692944913451));
#314=CARTESIAN_POINT('Origin',(1.71751041123588E-14,280.5,-1.90692944913451));
#315=CARTESIAN_POINT('',(10.5,280.5,-5.40692944913451));
#316=CARTESIAN_POINT('',(10.5,280.5,-5.40692944913451));
#317=CARTESIAN_POINT('',(-10.5,280.5,-5.40692944913451));
#318=CARTESIAN_POINT('Origin',(10.5,-6.42918335756748E-16,-1.90692944913451));
#319=CARTESIAN_POINT('',(10.5,280.5,-5.40692944913451));
#320=CARTESIAN_POINT('Origin',(0.,0.,-5.40692944913451));
#321=UNCERTAINTY_MEASURE_WITH_UNIT(LENGTH_MEASURE(0.01),#325,
'DISTANCE_ACCURACY_VALUE',
'Maximum model space distance between geometric entities at asserted c
onnectivities');
#322=UNCERTAINTY_MEASURE_WITH_UNIT(LENGTH_MEASURE(0.01),#325,
'DISTANCE_ACCURACY_VALUE',
'Maximum model space distance between geometric entities at asserted c
onnectivities');
#323=(
GEOMETRIC_REPRESENTATION_CONTEXT(3)
GLOBAL_UNCERTAINTY_ASSIGNED_CONTEXT((#321))
GLOBAL_UNIT_ASSIGNED_CONTEXT((#325,#327,#328))
REPRESENTATION_CONTEXT('','3D')
);
#324=(
GEOMETRIC_REPRESENTATION_CONTEXT(3)
GLOBAL_UNCERTAINTY_ASSIGNED_CONTEXT((#322))
GLOBAL_UNIT_ASSIGNED_CONTEXT((#325,#327,#328))
REPRESENTATION_CONTEXT('','3D')
);
#325=(
LENGTH_UNIT()
NAMED_UNIT(*)
SI_UNIT(.MILLI.,.METRE.)
);
#326=(
LENGTH_UNIT()
NAMED_UNIT(*)
SI_UNIT(.CENTI.,.METRE.)
);
#327=(
NAMED_UNIT(*)
PLANE_ANGLE_UNIT()
SI_UNIT($,.RADIAN.)
);
#328=(
NAMED_UNIT(*)
SI_UNIT($,.STERADIAN.)
SOLID_ANGLE_UNIT()
);
#329=SHAPE_DEFINITION_REPRESENTATION(#330,#331);
#330=PRODUCT_DEFINITION_SHAPE('',$,#333);
#331=SHAPE_REPRESENTATION('',(#213),#323);
#332=PRODUCT_DEFINITION_CONTEXT('part definition',#337,'design');
#333=PRODUCT_DEFINITION('ENG000025158','ENG000025158',#334,#332);
#334=PRODUCT_DEFINITION_FORMATION('00.1',$,#339);
#335=PRODUCT_RELATED_PRODUCT_CATEGORY('ENG000025158','ENG000025158',(#339));
#336=APPLICATION_PROTOCOL_DEFINITION('international standard',
'automotive_design',2009,#337);
#337=APPLICATION_CONTEXT(
'Core Data for Automotive Mechanical Design Process');
#338=PRODUCT_CONTEXT('part definition',#337,'mechanical');
#339=PRODUCT('ENG000025158','ENG000025158','SIMPLE',(#338));
#340=PRESENTATION_STYLE_ASSIGNMENT((#341));
#341=SURFACE_STYLE_USAGE(.BOTH.,#344);
#342=SURFACE_STYLE_RENDERING_WITH_PROPERTIES($,#348,(#343));
#343=SURFACE_STYLE_TRANSPARENT(0.);
#344=SURFACE_SIDE_STYLE('',(#345,#342));
#345=SURFACE_STYLE_FILL_AREA(#346);
#346=FILL_AREA_STYLE('',(#347));
#347=FILL_AREA_STYLE_COLOUR('',#348);
#348=COLOUR_RGB('',1.,1.,0.);
ENDSEC;
END-ISO-10303-21;
